Parokya Ni Edgar - Pakiusap Lang Lasingin Nyo Ako tab

Intro:

E-12-11-12-7-9-7-0-2-4-0-5-4-0-5-7/(12--|
b---------------------------------------|
g---------------------------------------|
d---------------------------------------|
a---------------------------------------|
e---------------------------------------|

E-12-11-12-7-9-7-0-2-4-0-5-4-0-2-------|
b---------------------------------4/5--|
g--------------------------------------|
d--------------------------------------|
a--------------------------------------|
e--------------------------------------|

E-12-11-12-7-9-7-0-2-4-0-5-4-0-5-7/(12--|
b---------------------------------------|
g---------------------------------------|
d---------------------------------------|
a---------------------------------------|
e---------------------------------------|

E-12-9-11-7-12-11-9---|
b------------------12-|
g---------------------|
d---------------------|
a---------------------|
e---------------------|

Verse:
E-----------------------------------|
b-----------------------------------|
g-----------------------------------|
d-----------------------------------|
a-7-6-7-----------------------------|
e------7-9-7-0-2-4-0-5-4-0-5-7/(12--|

E--------------------------------|
b--------------------------------|
g--------------------------------|
d--------------------------------|
a-7-6-7--------------------------|
e------7-9-7-0-2-4-0-5-4-2-4-5/7-|

E-----------------------------------|
b-----------------------------------|
g-----------------------------------|
d-----------------------------------|
a-7-6-7-----------------------------|
e------7-9-7-0-2-4-0-5-4-0-5-7/(12--|

E--------------------------------|
b--------------------------------|
g--------------------------------|
d--------------------------------|
a-7-6-7--------------------------|
e------7-9-7-0-2-4-0-5-4-2-4-5/7-|

Refrain:
E--------------------------|
b--------------------------|
g--------------------------|
d-7--7-7-7-7-9-9-9-9-9-9-9-|    (3x)
a-7--7-7-7-7-9-9-9-9-9-9-9-|
e-5--5-5-5-5-7-7-7-7-7-7-7-|

Verse:
E-----------------------------------|
b-----------------------------------|
g-----------------------------------|
d-----------------------------------|
a-7-6-7-----------------------------|
e------7-9-7-0-2-4-0-5-4-0-5-7/(12--|

E--------------------------------|
b--------------------------------|
g--------------------------------|
d--------------------------------|
a-7-6-7--------------------------|
e------7-9-7-0-2-4-0-5-4-2-4-5/7-|

E-----------------------------------|
b-----------------------------------|
g-----------------------------------|
d-----------------------------------|
a-7-6-7-----------------------------|
e------7-9-7-0-2-4-0-5-4-0-5-7/(12--|

E--------------------------------|
b--------------------------------|
g--------------------------------|
d--------------------------------|
a-7-6-7--------------------------|
e------7-9-7-0-2-4-0-5-4-2-4-5/7-|

Refrain:

E--------------------------|
b--------------------------|
g--------------------------|
d-7--7-7-7-7-9-9-9-9-9-9-9-|    (3x)
a-7--7-7-7-7-9-9-9-9-9-9-9-|
e-5--5-5-5-5-7-7-7-7-7-7-7-|

Chorus:

E------------------------|
b------------------------|
g-9-9-9-9-9-14-11-13-9-9-|
d-9-9-9-9-9-X--X--X- X-X-|
a-7-7-7-7-7-12--9-11-7-7-|
e------------------------|

E--------------------------|
b--------------------------|
g--------------------------|
d-7--7-7-7-7-9-9-9-9-9-9-9-|
a-7--7-7-7-7-9-9-9-9-9-9-9-|
e-5--5-5-5-5-7-7-7-7-7-7-7-|

E------------------------|
b------------------------|
g-9-9-9-9-9-14-11-13-9-9-|
d-9-9-9-9-9-X--X--X- X-X-|
a-7-7-7-7-7-12--9-11-7-7-|
e------------------------|

E--------------------------|
b--------------------------|
g--------------------------|
d-7--7-7-7-7-9-9-9-9-9-9-9-|
a-7--7-7-7-7-9-9-9-9-9-9-9-|
e-5--5-5-5-5-7-7-7-7-7-7-7-|

E------------------------------------|
b------------------------------------|
g-6--6-6-6-6-8-8-8-8-8-8-8-9-9-9-9-9-|
d-X--X-X-X-X-X-X-X-X-X-X-X-X-X-X-X-X-|
a-4--4-4-4-4-6-6-6-6-6-6-6-7-7-7-7-7-|
e------------------------------------|

E---------------------------------|
b---------------------------------|
g---------------------------------|
d-7-7-7-7-7-7-7-11-11-11-11-11--9-|
a-7-7-7-7-7-7-7-11-11-11-11-11--9-|
e-5-5-5-5-5-5-5--9--9--9--9--9--7-|

Interlude:
E-7---------------------|
b--10-9-10-9-7----------|
g-------------9-8-------|
d----------------9-7----|
a-------------------9-7-|
e-----------------------|

E-12-11-12-7-9-7-0-2-4-0-5-4-0-2-------|
b---------------------------------4/5--|
g--------------------------------------|
d--------------------------------------|
a--------------------------------------|
e--------------------------------------|

E-7---------------------|
b--10-9-10-9-7----------|
g-------------9-8-------|
d----------------9-7----|
a-------------------9-7-|
e-----------------------|

E-12-9-11-7-12-11-0-7-4-0-5-4-0-2-0-|
b-----------------------------------|
g-----------------------------------|
d-----------------------------------|
d-----------------------------------|
a-----------------------------------|
e-----------------------------------|


Verse:
E-----------------------------------|
b-----------------------------------|
g-----------------------------------|
d-----------------------------------|
a-7-6-7-----------------------------|
e------7-9-7-0-2-4-0-5-4-0-5-7/(12--|

E--------------------------------|
b--------------------------------|
g--------------------------------|
d--------------------------------|
a-7-6-7--------------------------|
e------7-9-7-0-2-4-0-5-4-2-4-5/7-|

E-----------------------------------|
b-----------------------------------|
g-----------------------------------|
d-----------------------------------|
a-7-6-7-----------------------------|
e------7-9-7-0-2-4-0-5-4-0-5-7/(12--|

E--------------------------------|
b--------------------------------|
g--------------------------------|
d--------------------------------|
a-7-6-7--------------------------|
e------7-9-7-0-2-4-0-5-4-2-4-5/7-|



Refrain:

E--------------------------|
b--------------------------|
g--------------------------|
d-7--7-7-7-7-9-9-9-9-9-9-9-|    (3x)
a-7--7-7-7-7-9-9-9-9-9-9-9-|
e-5--5-5-5-5-7-7-7-7-7-7-7-|

Chorus:

E------------------------|
b------------------------|
g-9-9-9-9-9-14-11-13-9-9-|
d-9-9-9-9-9-X--X--X- X-X-|
a-7-7-7-7-7-12--9-11-7-7-|
e------------------------|

E--------------------------|
b--------------------------|
g--------------------------|
d-7--7-7-7-7-9-9-9-9-9-9-9-|
a-7--7-7-7-7-9-9-9-9-9-9-9-|
e-5--5-5-5-5-7-7-7-7-7-7-7-|

E------------------------|
b------------------------|
g-9-9-9-9-9-14-11-13-9-9-|
d-9-9-9-9-9-X--X--X- X-X-|
a-7-7-7-7-7-12--9-11-7-7-|
e------------------------|

E--------------------------|
b--------------------------|
g--------------------------|
d-7--7-7-7-7-9-9-9-9-9-9-9-|
a-7--7-7-7-7-9-9-9-9-9-9-9-|
e-5--5-5-5-5-7-7-7-7-7-7-7-|

E------------------------------------|
b------------------------------------|
g-6--6-6-6-6-8-8-8-8-8-8-8-9-9-9-9-9-|
d-X--X-X-X-X-X-X-X-X-X-X-X-X-X-X-X-X-|
a-4--4-4-4-4-6-6-6-6-6-6-6-7-7-7-7-7-|
e------------------------------------|

E---------------------------------|
b---------------------------------|
g---------------------------------|
d-7-7-7-7-7-7-7-11-11-11-11-11--9-|
a-7-7-7-7-7-7-7-11-11-11-11-11--9-|
e-5-5-5-5-5-5-5--9--9--9--9--9--7-|

E------------------------|
b------------------------|
g-9-9-9-9-9-14-11-13-9-9-|
d-9-9-9-9-9-X--X--X- X-X-|
a-7-7-7-7-7-12--9-11-7-7-|
e------------------------|

E--------------------------|
b--------------------------|
g--------------------------|
d-7--7-7-7-7-9-9-9-9-9-9-9-|
a-7--7-7-7-7-9-9-9-9-9-9-9-|
e-5--5-5-5-5-7-7-7-7-7-7-7-|

E------------------------|
b------------------------|
g-9-9-9-9-9-14-11-13-9-9-|
d-9-9-9-9-9-X--X--X- X-X-|
a-7-7-7-7-7-12--9-11-7-7-|
e------------------------|

E--------------------------|
b--------------------------|
g--------------------------|
d-7--7-7-7-7-9-9-9-9-9-9-9-|
a-7--7-7-7-7-9-9-9-9-9-9-9-|
e-5--5-5-5-5-7-7-7-7-7-7-7-|

E------------------------------------|
b------------------------------------|
g-6--6-6-6-6-8-8-8-8-8-8-8-9-9-9-9-9-|
d-X--X-X-X-X-X-X-X-X-X-X-X-X-X-X-X-X-|
a-4--4-4-4-4-6-6-6-6-6-6-6-7-7-7-7-7-|
e------------------------------------|

E---------------------------------|
b---------------------------------|
g---------------------------------|
d-7-7-7-7-7-7-7-11-11-11-11-11--9-|
a-7-7-7-7-7-7-7-11-11-11-11-11--9-|
e-5-5-5-5-5-5-5--9--9--9--9--9--7-|

E--------------------------------------------------------|
b--------------------------------------------------------|
g-9-9-8-9-11-11-9-8-9-13-13-11-9-14-14-13-11-9-11-11-9-8-|
d-X-X-X-X--X--X-X-X-X-X--X--X--X-X--X--X--X--X--X--X-X-X-|
a-7-7-6-7--9--9-7-6-7-11-11--9-7-12-12-11-9--7--9--9-7-6-|
e--------------------------------------------------------|

E-----------------------------|
b-----------------------------|
g-13-13-11-9-11-13-13-11-9-11-|
d-X---X-X--X--X-X---X-X--X--X-|
a-11-11-9--7--9-11-11-9--7--9-|
e-----------------------------|

Outro:

E-12-11-12-7-9-7-0-2-4-0-5-4-0-5-7/(12--|
b---------------------------------------|
g---------------------------------------|
d---------------------------------------|
a---------------------------------------|
e---------------------------------------|

E-12-11-12-7-9-7-0-2-4-0-5-4-0-2-------|
b---------------------------------4/5--|
g--------------------------------------|
d--------------------------------------|
a--------------------------------------|
e--------------------------------------|

E-12-11-12-7-9-7-0-2-4-0-5-4-0-5-7/(12--|
b---------------------------------------|
g---------------------------------------|
d---------------------------------------|
a---------------------------------------|
e---------------------------------------|

E-12-9-11-7-12-11-0-7-4-0-5-4-0-2-0-------|
b-----------------------------------4/5-5-|
g-----------------------------------------|
d-----------------------------------------|
d-----------------------------------------|
a-----------------------------------------|
e-----------------------------------------|
Tap to rate this tab
 
# A B C D E F G H I J K L M N O P Q R S T U V W X Y Z