Song name
# A B C D E F G H I J K L M N O P Q R S T U V W X Y Z

Parokya Ni Edgar - How To Make A Love Song tab

fb:r_pines81@yahoo.com
pacomment na lang kung mali

e2 ung solo pakinggan nyo na lang ung audio para makuha nio ung timing

this is 100% accurate

e-----------7--5----------------------------------------|
B-----------------7--7--5-----8--7--5-----------10------|
G--7-----7-----------------7-----------7--6------9------|
D-----9--------------------------------------7----------|
A-------------------------------------------------------|
E-------------------------------------------------------|

e---------------------9--10/15--15--14--12-------------------|
B-----------8--8/10--10---------------------15--15/17--------|
G--7-----7--9--9/11------------------------------------14h16-|
D-----9------------------------------------------------------|
A------------------------------------------------------------|
E------------------------------------------------------------|

e--12--14--15-------------------------------------------|
B--------------12--14--15-------------------------------|
G--------------------------11--12--14------14-----------| x3
D--------------------------------------12------12-------|
A-------------------------------------------------------|
E-------------------------------------------------------|

e--15--14--12--------------17------17------17------17-------|
B--------------15------15------15------15------15-----------|
G------------------14---------------------------------------|
D-----------------------------------------------------------|
A-----------------------------------------------------------|
E-----------------------------------------------------------|


kmuzta mga friend ko s southgate!!!!!!
MABUHAY ANG SCV!!!!!!!!!
add nio ko fb r_pines81@yahoo.com
Tap to rate this tab
 
# A B C D E F G H I J K L M N O P Q R S T U V W X Y Z