Parokya Ni Edgar - Pangarap Lang Kita chords

Highlighted       Show chord diagrams
song: pangarap lang kita
tab by: craftoon
email add. klavenders13@yahoo.com



Intro: G-A-D(2x)
       G-A-D-C#m-B-A
       G-A-D

e|-----------------------|  
B|----------------3-0----|
G|---------------2----2--|
D|---5------7--0---------|
A|--5--5---7-7-----------|
E|-3-----5---------------|




Verse:

G-A-D
Mabuti pa sa lotto,

G-A-D
may pag-asang manalo.

G-A-Bm
Di tulad sa'yo,

G-A-D
Imposible.

G-A-D
Prinsesa ka,

G-A-D
ako'y dukha..

G-A-D-C#m-Bm-A-G-A-D

......"may mangyayari"


Chorus:

G-A-D
At kahit mahal kita,

G-A-D
wala akong magagawa..

G-A-D-C#m-Bm-A-
Tanggap ko oh, aking sinta..

G-A-D-            A-B-E
Pangarap lang kita

e|-----------------------|  
B|----------------5-2----|
G|---------------4----4--|
D|---7------9--2---------|
A|--7--7---9-9-----------|
E|-5-----7---------------|

Intro: A-B-E, A-B-E

Verse 2:

A-B-E
Ang hirap maging babae,

A-B-E
kung torpe U lalake.

A-B-C#m
Kahit may gusto ka,

A-B-E
di mo masabi..

A-B-E
Hindi ako yung tipo,

A-B-E
nagbibigay motibo. 

A-B-E-Eb-C#m-B
Conservative ako kaya,

A-B-E
di maaari..

Chorus:

A-B-E
At kahit mahal kita
A-B-E
wala akong magagawa.

A-B-E-Eb-C#m-B
Tanggap ko, oh aking sinta..

A-B-E
Pangarap lang kita..


then, may dalawang fills dito.


A-B-E-
A-B-E-Eb

e|--------------------------|  
B|---------------------10-8-|
G|-------------------10-----|
D|---6------8------10-------|
A|--6--6---8-8--8-----------|
E|-4-----6------------------|

Chorus:


Ab-Bb-Eb
At kahit mahal kita,

Ab-Bb-Eb
wala akong magagawa.

Ab-Bb-Eb-D-Cm-Bb
Tanggap ko oh aking sinta,

Ab-Bb-Eb
Pangarap lang kita.
Tap to rate this tab
 
# A B C D E F G H I J K L M N O P Q R S T U V W X Y Z