Song name
# A B C D E F G H I J K L M N O P Q R S T U V W X Y Z

Parokya Ni Edgar - Reunion Panahon Ng Kasiyahan chords

Highlighted       Show chord diagrams
Song:        Reunion (Panahon ng Kasiyahan)
Artist/Band: Parokya Ni Edgar
Album:       Middle-Aged Juvenile Novelty Pop Rockers (2010)
Tabbed by:   Pauz Prima (primesenthyx@yahoo.com)

-------------------------------------------------------------------------------------

INTRO:

Guitar 1:

 
   E   A        D          E                       A         D           E            D
|-----9~~-9-9-10~-9---------10-9------------------9~~-9-12-10~-9---------------------------------|
|-------------------12-10--------10-12-10---10-12----------------12-10-12~-12/14-12-10-9---10-12-|
|-7-7---------------------9---------------9----------------------------------------------9-------|
|-7-7--------------------------------------------------------------------------------------------|
|-9-9--------------------------------------------------------------------------------------------|
|------------------------------------------------------------------------------------------------|
  A         D           Bm           D            A         D          E            D
|-9~~-9-12-10~-9-------12-10-9h10-9--------------9~~-9-12-10~-9--------------------------|
|----------------12-10--------------10-9---10-12----------------12-10-12~-12/14-12-10~~--|
|----------------------------------------9-----------------------------------------------|
|----------------------------------------------------------------------------------------|
|----------------------------------------------------------------------------------------|
|----------------------------------------------------------------------------------------|
    D                  Bm    D           A       D          Bm    E - D
|---------------------------------------------------------------------------------|
|-//10-9----------9/10-7~~--10-9-10-----/10-9----------9/10-7~~--10/12-10-9-------|
|--------9h11-9-7-------------------9~--------9h11-9-7----------------------9~~~--|
|---------------------------------------------------------------------------------|
|---------------------------------------------------------------------------------|
|---------------------------------------------------------------------------------|


Guitar 2:
  A D E  A D E D
  A D Bm D A D E D  
  D  Bm D  A D Bm E D


VERSE 1:

Guitar 1 & 2:
  A Bm D E (4X)


CHORUS 1:

Guitar 1 & 2:
  A D E  A D E D
  A D Bm D A D E D  

INTERLUDE:

Guitar 1:

    D                  Bm    D           A       D          Bm    E - D
|---------------------------------------------------------------------------------|
|-//10-9----------9/10-7~~--10-9-10-----/10-9----------9/10-7~~--10/12-10-9-------|
|--------9h11-9-7-------------------9~--------9h11-9-7----------------------9~~~--|
|---------------------------------------------------------------------------------|
|---------------------------------------------------------------------------------|
|---------------------------------------------------------------------------------|

Guitar 2:
  D  Bm D  A D Bm E D


VERSE2:

Guitar 1 & 2:
  A Bm D E (4X)


CHORUS 2:

Guitar 1 & 2:
  A D E  A D E D
  A D Bm D A D E  


BRIDGE:

Guitar 1 & 2:
  D A Bm E
  D A Bm  D


CHORUS 3:

Guitar 1 & 2:
  A D E  A D E D
  A D Bm D A D E D  


eto muna ngayon..ginagawa ko pa ung guitar pro nito e..hehe!!:D
paki-rate na rin po..thnx!!
99% accurate
---------------------------------------------------------------------------------------------

> SenthyX Zone
> Senthyx Band

Tap to rate this tab
# A B C D E F G H I J K L M N O P Q R S T U V W X Y Z