Song name
# A B C D E F G H I J K L M N O P Q R S T U V W X Y Z

Parokya Ni Edgar - Pangarap Lang Kita tab

Tab by: pakz
Song: pangarap lang kita by PNE
Tuning:drop D po eto na naka capo sa unang fret.
message nyu po ako sa fb add na din kung gusto nyu :>
cri5an2@yahoo.com



INTRO:
e|--------------------|-----------------------|
B|-------------3--0---|---12------------------|
G|------0-------------|------12~------9~------|
D|----2---2s4---4-----|----------12-----------|
A|--3-----------------|-----------------------|
E|--------------------|-----------------------|

E|----------------0---|---2h3-2---------------|
B|-------------3------|----------3------------|
G|------0-------------|-----------------------|
D|----2---2s4---------|-----------------------|
A|--3-----------------|-----------------------|
E|--------------------|-----------------------|

E|-------------------------------------------|
B|-------------------------------------------|
G|------0----0---0---0---0---0---0-----------|
D|----2---2s4-4------------------------------|
A|--3----------------------------------------|
E|----------------5---4---2---0--------------|

e|---------------------------|
B|-------------3-------------|
G|------0----------0---------|
D|----2---2s4----------------|
A|--3------------------------|
E|---------------------------|

verse 1:
e|--------------------|
B|-------------3--0---|
G|------0-------------|3X
D|----2---2s4---4-----|
A|--3-----------------|
E|--------------------|

E|-------------------------------------------|
B|-------------------------------------------|
G|------0----0---0---0---0---0---0-----------|
D|----2---2s4-4------------------------------|
A|--3----------------------------------------|
E|----------------5---4---2---0--------------|
                       strum
e|-------------------------|
B|-------------3-----------|
G|------0---------0--------|
D|----2---2s4--------------|
A|--3----------------------|
E|-------------------------|

2nd verse:
e|-------------------------|
B|-------------------------|
G|------2-----2---2--------|3x
D|----4---4h6---4----------|
A|--5----------------------|
E|-------------------------|

e|-----------------------------|
B|-----------------------------|
G|------2-----2----------------|
D|----4---4h6---4---7--6--4--2-|
A|--5--------------------------|
E|----------------7--6--4--2---|

e|--------------2----------|
B|--------------2----------|
G|------2-------2----------|
D|----4---4h6---4----------| 
A|--5-----------5----------|
E|-------------------------|

then do power chords

D-E-F# 2x
D-E-A-Ab-F#-Em ---> anjan po yun mabilis na shifting 
ng chords sa bandang Ab-F#-Em timing lang.. :>

sa mga slight strum madali lang naman kaya kayu na bahala, 
pag aralan nyu lang ung timing, pakinggang mabuti yung kanta.. 
unang tab ko eto d2 sa UG haha yong may mali paki ayus na lang po..
Tap to rate this tab
# A B C D E F G H I J K L M N O P Q R S T U V W X Y Z