Song name
# A B C D E F G H I J K L M N O P Q R S T U V W X Y Z

Parokya Ni Edgar - Orange chords

Highlighted       Show chord diagrams
Hope maintindihan nio yan... :D

BTW!!! PA ADD PO SA FB.. hehe..
ronarchiediaz@yahoo.com

Orange - Parokya ni Edgar

INTRO.. A - Bm - E - A

intro tab:

e---------------------------------------------------------------|
B------9/10-9---------------------------------------------------|
G--------------9--------------9-------11--9------------------9--|
D-----------------11-9--9/11----11/12-------12-11-9--9/11-9-----|
A---------------------------------------------------------------|
E---------------------------------------------------------------|


    --------------------------------------------|-------------------------|
    ---9/10-9-------------------|10-          |-|-------10-------10/12-10-|
    ----------9-------------9---|9-  sabay jan|-|--9/11-----9/11----------|
    ------------11-9--9/11----------------------|-------------------------|
    --------------------------------------------|-------------------------|
    --------------------------------------------|-------------------------|


e---------------------------------------------------------------|
B------9/10-9---------------------------------------------------|
G--------------9--------------9-------11--9------------------9--|
D-----------------11-9--9/11----11/12-------12-11-9--9/11-9-----|
A---------------------------------------------------------------|
E---------------------------------------------------------------|



  ---------------------------------------------|---------------------------|
  --9/10-9----------------------|10-         |-|-------10------------|9|---|
  -----------9--------------9---|9- sabay jan|-|--9/11-----12s-11-9--|11|--|
  ----------------11-9--9/11-------------------|---------------------------|
  ---------------------------------------------|---------------------------|
  ---------------------------------------------|---------------------------|



VERSE:
              A       Bm
 Gusto kong kumain ng lemon
 E                A
 kahit ano, kahit melon
     A              Bm
 O kaya naman, dalandan
   E                          A   A7
 samahan mo pa ng buko and pandan


CHORUS:
    D                    C#m
 Ngunit ang gusto ko talaga
        Bm            E              A  A7
 ay ang orange na dala mo sa'yong bulsa
    D             C#m
 Mukha kasing masarap
     Bm           E          A
 patikim naman ng aking pangarap


(Repeat INTRO)

VERSE:
              A       Bm
 Gusto kong kumain ng gulay
 E                   A
 kahit na ano, kahit pechay
       A                   Bm
 Pwede rin namang fresh na sitaw
     E                        A     A7
 o kamatis na sa mata ay pampalinaw

(Repeat Chorus)

tapos...


tapos na...hehehe


kayo na po bahala jan...hehehe...

madali lang po yan..^_^ GUDLUCK!!!
Tap to rate this tab
# A B C D E F G H I J K L M N O P Q R S T U V W X Y Z