Song name
# A B C D E F G H I J K L M N O P Q R S T U V W X Y Z

Parokya Ni Edgar - Pangarap Lang Kita tab

HERE IS THE RIGHT TAB FOR THE SONG "PANGARAP LANG KITA" BY PAROKYA NI EDGAR.
WAG NANG MAGPALIGOY-LIGOY PA :) DON'T FORGET TO RATE AND SHARE WITH YOUR FRIENDS :)

WALANG MALI DITO TANDAAN NIYO YAN :) KUNG MERON MAN, CONTACT ME: nicholson.cruda100@gmail.com

enjoy.

para sa mga gustong maging gf/bf ang kanyang crush ngunit 'di matupad-tupad :)

INTRO:
e|---------------------|-----------7----3--------------|
B|---------------3-----|----0-----------------3---5----|
G|------0-----------0--|-------------------------------|
D|----2---2------------|-------------------------------|
A|--3----------5-------|-------------------------------|
E|---------------------|----0--------------------------|
-
e|---------------------|-----------2h3-----2-----------|
B|---------------3-----|----5------------------3-------|
G|------0-----------0--|-------------------------------|
D|----2---2------------|-------------------------------|
A|--3----------5-------|-------------------------------|
E|---------------------|----0--------------------------|
-
e|-------------------------|--------------------------|
B|---------------3---------|--------------------------|
G|------0-----------0------|------0---0---0---0-------|
D|----2---2------------0---|----------------0---------|
A|--3----------5-----------|--------------------------|
E|-------------------------|----3---2---0-------------|
-
e|---------------------|---------------|
B|---------------------|---------------|
G|------0--------0-----|-----0---------|
D|----2---2--------4---|---------------|
A|--3----------5-------|---------------|
E|---------------------|-----3---------|
-
VERSE:
e|---------------------|--------------------|
B|---------------------|--------------------|
G|------0--------0-----|-----0---------0----|    3X
D|----2---2--------4---|------------0-----0-|
A|--3----------5-------|--------------------|
E|---------------------|-----0--------------|
-
e|---------------------|--------------------|
B|---------------------|--------------------|
G|------0--------0-----|-----0---------0----|
D|----2---2--------4---|------------0-----0-|
A|--3----------5-------|--------------------|
E|---------------------|-----3--------------|
-
e|---------------------|--------------------|
B|---------------------|--------------------|
G|------0--------0-----|-----0---------0----|    2X
D|----2---2--------4---|------------0-----0-|
A|--3----------5-------|--------------------|
E|---------------------|-----0--------------|

e|----------------------|--------------------------|
B|----------------------|--------------------------|
G|------0--------0------|------0---0---0---0-------|
D|----2---2--------4----|----------------0---------|
A|--3----------5-----5--|--------------------------|
E|----------------------|----3---2---0-------------|
-
e|---------------------|--------------------|
B|---------------------|--------------------|
G|------0--------0-----|-----0---------0----|
D|----2---2--------4---|------------0-----0-|
A|--3----------5-------|--------------------|
E|---------------------|-----3--------------|
-

THEN, CHORUS:
-
e|---------------------|--------------------|
B|---------------------|--------------------|
G|------0--------0-----|-----0---------0----|    2X
D|----2---2--------4---|------------0-----0-|
A|--3----------5-------|--------------------|
E|---------------------|-----0--------------|
-
e|----------------------|--------------------------|
B|----------------------|--------------------------|
G|------0--------0------|------0---0---0---0-------|
D|----2---2--------4----|----------------0---------|
A|--3----------5-----5--|--------------------------|
E|----------------------|----3---2---0-------------|
-
e|---------------------|--------------------|
B|---------------------|--------------------|
G|------0--------0-----|-----0---------0----|
D|----2---2--------4---|------------0-----0-|
A|--3----------5-------|--------------------|
E|---------------------|-----3--------------|

EITHER YOU MOVE THE CAPO TO 3RD FRET, OR USE THIS:
-
e|---------------------|--------------------|
B|---------------------|--------------------|
G|------2--------2--1--|-----2---------2----|    2X
D|----4---4----2-------|------------2-----2-|
A|--5------------------|--------------------|
E|---------------------|-----2--------------|
-
VERSE 2:
-
e|---------------------|--------------------|
B|---------------------|--------------------|
G|------2--------2--1--|-----2---------2----|    3X
D|----4---4----2-------|------------2-----2-|
A|--5------------------|--------------------|
E|---------------------|-----2--------------|
-
e|---------------------|--------------------|
B|---------------------|--------------------|
G|------2--------2--1--|-----2---------2----|
D|----4---4----2-------|------------2-----2-|
A|--5------------------|--------------------|
E|---------------------|-----5--------------|
-
e|---------------------|--------------------|
B|---------------------|--------------------|
G|------2--------2--1--|-----2---------2----|    2X
D|----4---4----2-------|------------2-----2-|
A|--5------------------|--------------------|
E|---------------------|-----2--------------|
-
e|-----------------------|--------------------------|
B|-----------------------|--------------------------|
G|------2--------2--1----|------2---2---2---2-------|
D|----4---4----2------1--|--------------------------|
A|--5--------------------|--------------------------|
E|-----------------------|----5---4---2---0---------|
-
e|---------------------|--------------------|
B|---------------------|--------------------|
G|------2--------2--1--|-----2---------2----|
D|----4---4----2-------|------------2-----2-|
A|--5------------------|--------------------|
E|---------------------|-----5--------------|
THEN CHORUS:
-
e|---------------------|--------------------|
B|---------------------|--------------------|
G|------2--------2--1--|-----2---------2----|    2X
D|----4---4----2-------|------------2-----2-|
A|--5------------------|--------------------|
E|---------------------|-----2--------------|
-
e|-----------------------|--------------------------|
B|-----------------------|--------------------------|
G|------2--------2--1----|------2---2---2---2-------|
D|----4---4----2------1--|--------------------------|
A|--5--------------------|--------------------------|
E|-----------------------|----5---4---2---0---------|
-
e|---------------------|--------------------|
B|---------------------|--------------------|
G|------2--------2--1--|-----2---------2----|
D|----4---4----2-------|------------2-----2-|
A|--5------------------|--------------------|
E|---------------------|-----5--------------|
-
then....

e|---------------------|--------------------|
B|---------------------|--------------------|
G|------2--------2--1--|-----2---------2----|    2X
D|----4---4----2-------|------------2-----2-|
A|--5------------------|--------------------|
E|---------------------|-----2--------------|
-
e|---------------------|------------------------|
B|---------------------|-----1--1--------1------|
G|------2--------2--1--|--------------1-----1---|
D|----4---4----2-------|------------------------|
A|--5------------------|------------------------|
E|---------------------|-----1------------------|
-

LAST CHORUS PART:

CAN BE AT CAPO 2, OR THIS:

e|---------------------|--------------------|
B|---------------------|--------------------|
G|------1--------1--0--|-----1---------1----|    2X
D|----3---3----1-------|------------1-----1-|
A|--4------------------|--------------------|
E|---------------------|-----1--------------|
-
e|-----------------------|---------------------------|
B|-----------------------|---------------------------|
G|------1--------1--0----|------1---1---1----1-------|
D|----3---3----1------1--|-----------------1---------|
A|--4--------------------|---------------------------|
E|-----------------------|----4---3---1--------------|
-
e|---------------------|--------------------|
B|---------------------|--------------------|
G|------1--------1--0--|-----1---------1----|
D|----3---3----1-------|------------1-----1-|
A|--4------------------|--------------------|
E|---------------------|-----4--------------|

ALL OF IT 3X, THEN END:

e|---------------------|--------------------|
B|---------------------|--------------------|
G|------1--------1--0--|-----1---------1----|
D|----3---3----1-------|------------1-----1-|
A|--4------------------|--------------------|
E|---------------------|-----1--------------|
-
e|---------------------|-----5---------5-------------------|
B|---------------------|-----5-----------5----5-----(4X)---|
G|------1--------1--0--|-----------------------------------|
D|----3---3----1-------|-----------------------------------|
A|--4------------------|-----4-----------------------------|
E|---------------------|-----4-----------------------------|

:)
Tap to rate this tab
# A B C D E F G H I J K L M N O P Q R S T U V W X Y Z