Song name
# A B C D E F G H I J K L M N O P Q R S T U V W X Y Z

Parokya Ni Edgar - Maniwala Ka Sana tab

MANIWALA KA SANA by PAROKYA NI EDGAR
Tabbed by: Rakizta_Ralph
Email: fast_break20@yahoo.com.ph (friendster.com)

CHORDS: C-Am-F-G

STRUMMING:

	  C		     Am			F		   G
e|--0--0--0--0--0--|--0--0--0--0--0--|--0--0--0--0--0--|--x--x--0--x--x--|
B|--1--1--0--1--1--|--1--1--0--1--1--|--1--1--0--1--1--|--3--3--0--3--3--|
G|--0--0--0--0--0--|--2--2--2--2--2--|--2--2--2--2--2--|--4--4--4--4--4--|
D|--2--2--2--2--2--|--2--2--2--2--2--|--3--3--3--3--3--|--5--5--5--5--5--|
A|--3--3--3--3--3--|--0--0--0--0--0--|--3--3--3--3--3--|--5--5--5--5--5--|
E|--3--3--3--3--3--|--x--x--x--x--x--|--x--x--x--x--x--|--x--x--x--x--x--|


ADLIB: 1min:34sec

e|---------------------------------------7-8-8/10-8-7--------------------------|
B|---------------------------------------0------------8/10-8-------------------|
G|--9-10-7----------------------------5--0-------------------10-7/9-7-5--------|
D|----------5-7-2---2-0-2-3-2-----3/5-----------------------------------7-7----|
A|----------------3-----------3-5----------------------------------------------|
E|-----------------------------------------------------------------------------|

e|-----------------------------------------8-7-8-------------------10----------|
B|----------------6---5h6---5h6---6-6-8/10-------10-8---8/10-10b11----10b11-8--|
G|--4-5-5/7-5-4-7---7-----7-----7---------------------9------------------------|
D|-----------------------------------------------------------------------------|
A|-----------------------------------------------------------------------------|
E|-----------------------------------------------------------------------------|

e|------8/10-10---|
B|--8-7-----------|
G|--5-------------|
D|----------------|
A|----------------|
E|----------------|

| /  slide up
| \  slide down
| h  hammer-on
| p  pull-off
| ~  vibrato
| +  harmonic
| x  Mute note
===============================================================================
Tap to rate this tab
# A B C D E F G H I J K L M N O P Q R S T U V W X Y Z