Song name
# A B C D E F G H I J K L M N O P Q R S T U V W X Y Z

Parokya Ni Edgar - Gitara tab

GITARA-Parokya Ni Edgar(intro)

TUNING:STANDARD

rhythm at lead to na pinagsama


|-----0---2-5\3---------7--5-7--8-15------------|
|-3----------------------------------7-5-7------|
|-2p0-2p0-2-----2p0-2p0--0----0---12-7-7-7------|
|-----------------------7----7----12----9-9p7---|
|-----------2---2---2------------------------10-|
|-3---3-----------------8----8------------------|

|-----0---2-5\3-5\3-----7--5-7--8-12-10-7-8-----|
|-3----------------------------------7--5-7-10--|
|-2p0-2p0-2---------2p0--0----0---12-7--7-7-7---|
|-----------------------7----7----12--------7---|
|-----------2---2---2---------------------------|
|-3---3-----------------8----8------------------|



Tap to rate this tab
# A B C D E F G H I J K L M N O P Q R S T U V W X Y Z