Song name
# A B C D E F G H I J K L M N O P Q R S T U V W X Y Z

Parokya Ni Edgar - Pangarap Lang Kita tab

Pangarap Lang Kita 
by Parokya Ni Edgar

Tab by: Rence Liwanag, PRO2CaLL

Capo on 1st Fret: This gives a Half-Step Up tune.

Intro:

   C       D    Em               
e|-------------------7-------| 
b|-----------3--0-----8------|
g|---0-----------------7-7h8-|
d|--2------------------------|
a|-3---3s5-5-5---------------|
e|--------------0------------|

   C       D    Em
e|--------------0----2h3p2---|
b|-----------3------------3--|
g|---0-----------------------|
d|--2------------------------|
a|-3---3s5-5-5---------------|
e|--------------0------------|

   C       D      G  Gbm Em  D
e|---------------------------------|
b|-----------3---------------------|
g|---0--------------0--0---0---0---|
d|--2------------------------0-----|
a|-3---3s5-5-5---------------------|
e|--------------0-3---2--0---------|

   C     D         G
e|-----------------3----------|
b|-----------------3----------|
g|---0-------------0----------|
d|--2------4h5p4---0----------|
a|-3---3s5---------2----------|
e|-----------------3----------|

Verse 1:

   C       D    Em
      Mabuti    pa sa lotto
e|-----------------------0-----|
b|-----------3--0----0-----0---|
g|---0-----------------------0-|
d|--2------------------2-------|
a|-3---3s5-5-5-----------------|
e|--------------0--0-----------|

  C       D    Em
       May pag-asang manalo
e|-----------------------0-----|
b|-----------3--0----0-----0---|
g|---0-----------------------0-|
d|--2------------------2-------|
a|-3---3s5-5-5-----------------|
e|--------------0--0-----------|

  C       D    Em
     Di tulad sa'yo       Impo-
e|-----------------------0-----|
b|-----------3--0----0-----0---|
g|---0-----------------------0-|
d|--2------------------2-------|
a|-3---3s5-5-5-----------------|
e|--------------0--0-----------|


   C     D         G
    -sible
e|-----------------3----------|
b|-----------------3----------|
g|---0-------------0----------|
d|--2------4h5p4---0----------|
a|-3---3s5---------2----------|
e|-----------------3----------|

Verse 2:
Same as Verse1. Just repeat.

Prinsesa ka
Ako'y dukha
Sa T.V lang naman kasi 
May mangyayari


Chorus 1:
(Strum lang)

      C9     D     Em
At kahit mahal kita

    C9    D    Em
Wala akong magagawa

    C9     D    G-Gbm-Em-D
Tanggap ko oh aking sinta

   C9     D      G--A   <---G modulate to A
Pangarap lang kita



   D       E    F#m
e|--------------2---2-----|
b|-----------5--2-----2---|
g|---2----------2-------2-|
d|--4-----------4---------|
a|-5---5s7-7-7--4---------|
e|--------------2-2-------|

   D       E    A
e|--------------0---0-----|
b|-----------5--2-----2---|
g|---2----------2-------2-|
d|--4-----------2---------|
a|-5---5s7-7-7--0-0-------|
e|------------------------|

Verse 3:

   D       E    F#m
       Ang hirap maging babae
e|--------------2---2-----|
b|-----------5--2-----2---|
g|---2----------2-------2-|
d|--4-----------4---------|
a|-5---5s7-7-7--4---------|
e|--------------2-2-------|

   D       E    F#m
        Kung torpe ung lalake
e|--------------2-------2----|
b|-----------5--2---2-----2--|
g|---2----------2-----2------|
d|--4-----------4------------|
a|-5---5s7-7-7--4------------|
e|--------------2-2----------|

   D       E    F#m
       Kahit may gusto ka
e|--------------2---2-----|
b|-----------5--2-----2---|
g|---2----------2-------2-|
d|--4-----------4---------|
a|-5---5s7-7-7--4---------|
e|--------------2-2-------|

   D       E    A
     Di mo masabi
e|--------------0---0-----|
b|-----------5--2-----2---|
g|---2----------2-------2-|
d|--4-----------2---------|
a|-5---5s7-7-7--0-0-------|
e|------------------------|

Verse 4:
Repeat Verse 3. 

Hindi ako yung tipong
Nagbibigay motibo
Conservative ako kaya
Hindi maaari

Chorus 2:


      D      E     F#m
At kahit mahal kita

    D     E    F#m
Wala akong magagawa

    D      E    A-Abm-F#m-E
Tanggap ko oh aking sinta

   D      E      A
Pangarap lang kita


Interlude:
D-E-F#m
D-E-F#-G#

Chorus 3:

      C#    D#     Fm
At kahit mahal kita

   C#    D#    Fm
Wala akong magagawa

    C#     D#   Ab-Gm-Fm-D#
Tanggap ko oh aking sinta

   C#     D#     Ab
Pangarap lang kita


Repeat chords in Chorus 3.


END

Tsaka na ung mga lead fill.
Tap to rate this tab
# A B C D E F G H I J K L M N O P Q R S T U V W X Y Z