Song name
# A B C D E F G H I J K L M N O P Q R S T U V W X Y Z

Parokya Ni Edgar - Tatlong Araw tab

im sure of this 99% perfect!


E||---------------------------10---------------------------------------------|
B||---------------------10-10^--10^--8---------------------------------------|
G||-----7~----7h9h7--9^----------------9-7-----------------------------------|
D||-7h9---7h9-------------------------------9-9//----------------------------|
A||--------------------------------------------------------------------------|
E||--------------------------------------------------------------------------|

E||------------------------------------------------------------------------|
B||--------------8~--888s10--101010s12--121212s15~-------------------------|
G||-----7h9--7h9-----------------------------------------------------------|
D||-7h9--------------------------------------------------------------------|
A||------------------------------------------------------------------------|
E||------------------------------------------------------------------------|

E||----12-------------19---17^-19-19-17---17-------------------------------|
B||-14^--14^-----17s19--19--------------19---17-19-17^-17-19-17-15---------|
G||---------------------------------------------------------------16-------|
D||------------------------------------------------------------------------|
A||------------------------------------------------------------------------|
E||------------------------------------------------------------------------|

E||------------------------------------------------------------------------|
B||-101010/8-888/6-666/4--444/2------3~------------------------------------|
G||------------------------------2h4---------------------------------------|
D||------------------------------------------------------------------------|
A||------------------------------------------------------------------------|
E||------------------------------------------------------------------------|

hi! ako pal c tonton! taga davao,
kung may comment kau d2 sa tab ko, mag send lng kau ng message sa friendster ko!
pikit_wilmerton@yahoo.com!
Tap to rate this tab
# A B C D E F G H I J K L M N O P Q R S T U V W X Y Z