Song name
# A B C D E F G H I J K L M N O P Q R S T U V W X Y Z

Parokya Ni Edgar - Gitara tab

                        -SainT_Mei

e|-----------------------7--5-7-8-12-10-7-8-7--------------------------------|
B|------7-8s10-8-7-7---------------------------8-----------------------------|
G|--7-9----------------------------------------------------------------------|
D|---------------------------------------------------------------------------|
A|---------------------------------------------------------------------------|
E|---------------------------------------------------------------------------|


ADLIB: :)

e|-------------------------------12-10-7-7-7-5-7-5---------------------------|
B|----------7-8-7----7--8--10-12---------------------------------------------|
G|---7-7h-9--------7---7--9--------------------------------------------------|
D|---------------------------------------------------------------------------|
A|---------------------------------------------------------------------------|
E|---------------------------------------------------------------------------|

      Sensya na D natapos... :(  correct me if im wrong @ gensvhans@yahoo.com.... i love 
monique    ^_^
Tap to rate this tab
 
# A B C D E F G H I J K L M N O P Q R S T U V W X Y Z