Song name
# A B C D E F G H I J K L M N O P Q R S T U V W X Y Z

Parokya Ni Edgar - Sampip tab

-----------------------------------------------------------------------------
                             SONG NAME - Band Name
-----------------------------------------------------------------------------
Tabbed by: Kadas
E-mail: aaron_pox@yahoo.com

Tuning: Standard

GO LYMAN!!!! Sineparate ko yung mga staff sa mga parts na praktisin mong una tas 
next staff next staff, etc. 
Ag upload nak tu lattan vid.

Solo 1:

e|------------------------------------------------|
B|-----8----8--10--b10-b10--b10br-8-10-8----------|
G|-7h9---9-------------------------------9--------|
D|------------------------------------------------|
A|------------------------------------------------|
E|------------------------------------------------|

e|------------------------------------------------|
B|--------------8-8/10-10-------------------------|
G|----------7-9-----------------------------------|
D|---7-9-10---------------------------------------|
A|-10---------------------------------------------|
E|------------------------------------------------|

e|-10-10p8p7-8-7----7-8-10-10\8--10-8-10-8--------|
B|---------------10-----10-10\8--10-8-10-8--------|
G|------------------------------------------------|
D|------------------------------------------------|
A|------------------------------------------------|
E|------------------------------------------------|

e|-8/10---------------------------------------------------------------------|
B|-8/10/12~--12\10-8-10--8---7---8---10-8---10/12-10\8-8/10\8-7h8-8~--------|
G|-------------------------9---9---9------9---------------------------------|
D|--------------------------------------------------------------------------|
A|--------------------------------------------------------------------------|
E|--------------------------------------------------------------------------|


Solo 2: Di pa sure dito... update nalang

e|----7-7-----7--------------------7--------------|
B|-/8-8-8-(8)-8-h10-8h10-8---8-7h8---h10-8p7-8----|
G|------------------------------------------------|
D|------------------------------------------------|
A|------------------------------------------------|
E|------------------------------------------------|

e|------7-------------------10-------10-------10-------10-------10------|
B|-8h10---h10-8-7/10--10h12----10h12----10h12----10h12----10h12----(10)-|
G|----------------------------------------------------------------------|
D|----------------------------------------------------------------------|
A|----------------------------------------------------------------------|
E|----------------------------------------------------------------------|

e|-10/12-12-12-12-10-10-8-8-7h8--10p7---------------|
B|-10/12-12-12-12-10-10-8-8-8---------8---10/8-7-8--|
G|--------------------------------------9-----------|
D|--------------------------------------------------|
A|--------------------------------------------------|
E|--------------------------------------------------|

e|----------------------------------------------------|
B|-8-8p7----------------8--7\5-7/8-8/10\8-7h8---------|
G|-------9-7--------7h9-------------------------------|
D|-----------9--7h9-----------------------------------|
A|----------------------------------------------------|
E|----------------------------------------------------|

etc etc. freestyle basta pentatonic. Ito gamitin kung di niyo alam mag freestyle

e|------10-------12-------10--------8-7---------------|
B|-8/10----10/12----12\10----10\8-8-------------------|
G|----------------------------------------------------|
D|----------------------------------------------------|
A|----------------------------------------------------|
E|----------------------------------------------------|

e|-8p7-----------------------------------------------------------------|
B|----8---8/10\8-7-8--8-8p7------------8-8p7---7h8-8/10\8-7h8-8~-------|
G|------9-------------------9-7------9-------9----------------7~-------|
D|------------------------------9-7h9----------------------------------|
A|---------------------------------------------------------------------|
E|---------------------------------------------------------------------|

etc etc. freestyle basta pentatonic.


************************************

| /   slide up
| \   slide down
| h   hammer-on
| p   pull-off
| ~   vibrato
| +   harmonic
| x   Mute note
| b   Bend
| pb  Pre-bend
| br  Bend release
| pbr Pre-bend release
| brb Bend release bend
| (X) Soft Pluck

************************************
Tap to rate this tab
 
# A B C D E F G H I J K L M N O P Q R S T U V W X Y Z