Song name
# A B C D E F G H I J K L M N O P Q R S T U V W X Y Z

Parokya Ni Edgar - Pangarap Lang Kita tab

This is my own arrangement of Pangarap Lang Kita.
first of all, this is a fingerstyle not the original.]
free to correct some mistakes.

http://www.facebook.com/HermanLuna
http://www.youtube.com/watch?feature=player_embedded&v=uWlaDm8_0KI


Intro:
e -------------------------7--3-----------------------|
A -----------------3--0--------3-3s5------------------|
D ---0-----------0------------------------------------|
G --2----2s4------------------------------------------|
B -3-----s5----5------0-------------------------------|
E ----------------------------------------------------|

--------------------0-------------------------------|
-----------------3-----7b---------------------------|
---0-----------0-------7v---------------------------|
--2----2s4------------------------------------------|
-3-----s5----5--------------------------------------|
--------------------0-------------------------------|

----------------------------------------------------|
-----------------3----------------------------------|
---0-----------0------0-----0---0-------------------|
--2----2s4-------------------------0----------------|
-3-----s5----5--------------------------------------|
--------------------3----2----0---------------------|

---------------------------0------------------------|
----------------------------3---0-------------------|
---0-----------0-----0--------0---------------------|
--2----2s4--------4---------------------------------|
-3-----s5----5--------------------------------------|
---------------------3------------------------------|


Verse:

----------------------------------------------------|
-----------------3--0-------------------------------|
---0-----------0------------2-0-2-------------------|
--2----2s4----------------2-------------------------|
-3-----s5----5----------2---------------------------|
--------------------0-------------------------------|

----------------------------------------------------|
-----------------3--0-------------------------------|
---0-----------0------------2-0-2-------------------|
--2----2s4----------------2-------------------------|
-3-----s5----5----------2---------------------------|
--------------------0-------------------------------|

----------------------------------------------------|
-----------------3--0------------3-0-3--------------|
---0-----------0----------0---0---------------------|
--2----2s4------------------------------------------|
-3-----s5----5--------------------------------------|
------------------------3---2-----------------------|

--------------------------------0-------------------|
----0----------------------------3---0--------------|
-------0------------0----0---------0----------------|
----2------2s4--------4-----------------------------|
--3--------s5-----5---------------------------------|
-------------------------3--------------------------|

----------------------------------------------------|
-----------------3--0-------------------------------|
---0-----------0------------------------------------|
--2----2s4------------------------------------------|
-3-----s5----5--------------------------------------|
--------------------0-------------------------------|

----------------------------------------------------|
-----------------3--0-------------------------------|
---0-----------0------------2-0---------------------|
--2----2s4----------------2-------------------------|
-3-----s5----5----------2---------------------------|
--------------------0-------------------------------|

----------------------------------------------------|
-----------------3--0-------------------------------|
---0-----------0------------2-0-2-0-----------------|
--2----2s4----------------2-------------------------|
-3-----s5----5----------2---------------------------|
--------------------0-------------------------------|

----------------------------------------------------|
----3---3---0-3-0-----------------------------------|
----------------------------------------------------|
--2---2---2-----------------------------------------|
-3--------------------------------------------------|
----------------------------------------------------|


Chorus:

----------------------------------------------------|
--0-1--3-------------0------------------------------|
----------2-0------2--------------------------------|
---------2-------4----------------------------------|
-------3-------5------------------------------------|
---------------------0------------------------------|

----------------------------------------------------|
----------3-3-----------0---------------------------|
---0-0------------2-0-2-----------------------------|
--------2-------2-----------------------------------|
-----3--------3-------------------------------------|
----------------------------------------------------|

----------------------------------------------------|
----------3-3----3----0--3s5--3-0-------------------|
---0-0----------------------------------------------|
--------2------2----2-------------------------------|
-----3--------------------------0-------------------|
----------------------------------------------------|

-------------------0--------------------------------|
--0-1--3-3---------0--------------------------------|
-----------4-2--0--0--------------------------------|
-------------------0--------------------------------|
-------3--------0--0--------------------------------|
-------------------x--------------------------------|

Bridge(ata ito):

----------------------------------------------------|
-----------------3--0-------------------------------|
---0-----------0------------------------------------|
--2----2s4------------------------------------------|
-3-----s5----5------0-------------------------------|
----------------------------------------------------|

--------------------0--------------------------------|
-----------------3-----------------------------------|
---0-----------0-------------------------------------|
--2----2s4-------------------------------------------|
-3-----s5----5---------------------------------------|
--------------------0--------------------------------|

----------------------------------------------------|
-----------------3----------------------------------|
---0-----------0------0-----0---0-------------------|
--2----2s4-------------------------0----------------|
-3-----s5----5--------------------------------------|
--------------------3----2----0---------------------|

---------------------------0------------------------|
----------------------------3---0-------------------|
---0-----------0-----0--------0---------------------|
--2----2s4--------4---------------------------------|
-3-----s5----5--------------------------------------|
---------------------3------------------------------|


2nd Verse:

----------------------------------------------------|
-----------------3--0-------------------------------|
---0-----------0------------2-0-2-------------------|
--2----2s4----------------2-------------------------|
-3-----s5----5----------2---------------------------|
--------------------0-------------------------------|

----------------------------------------------------|
-----------------3--0-------------------------------|
---0-----------0------------2-0-2-------------------|
--2----2s4----------------2-------------------------|
-3-----s5----5----------2---------------------------|
--------------------0-------------------------------|

----------------------------------------------------|
-----------------3--0-------------------------------|
---0-----------0------------2-0-2-0-----------------|
--2----2s4----------------2-------------------------|
-3-----s5----5----------2---------------------------|
--------------------0-------------------------------|

----------------------------------------------------|
----3---3---0-3-0-----------------------------------|
----------------------------------------------------|
--2---2---2-----------------------------------------|
-3--------------------------------------------------|
----------------------------------------------------|

----------------------------------------------------|
-----------------3--0-------------------------------|
---0-----------0------------2-0-2-------------------|
--2----2s4----------------2-------------------------|
-3-----s5----5----------2---------------------------|
--------------------0-------------------------------|

----------------------------------------------------|
-----------------3--0-------------------------------|
---0-----------0------------2-0-2-------------------|
--2----2s4----------------2-------------------------|
-3-----s5----5----------2---------------------------|
--------------------0-------------------------------|

----------------------------------------------------|
-----------------3--0-------------------------------|
---0-----------0------------2-0-2-0-----------------|
--2----2s4----------------2-------------------------|
-3-----s5----5----------2---------------------------|
--------------------0-------------------------------|

----------------------------------------------------|
----3---3---0-3-0-----------------------------------|
----------------------------------------------------|
--2---2---2-----------------------------------------|
-3--------------------------------------------------|
----------------------------------------------------|

Chorus(2):
---------------0------------------------------------|
-0-1-3---------0------------------------------------|
---------2-0-2-2------------------------------------|
-------2-------2------------------------------------|
-----3---------0------------------------------------|
---------------x------------------------------------|

------------------------x----------------------------|
--------3-3-------------0----------------------------|
-0-0----0-------2-0-2---0----------------------------|
-----2--2-----2---------2----------------------------|
---3----3---3-----------3----------------------------|
------------------------x----------------------------|

------------------------------------------------------|
--------3-3---3---0-3s5-3-0---------------------------|
-0-0----0---------------------------------------------|
-----2--2---2---2-------------------------------------|
---3----3-----------------0---------------------------|
------------------------------------------------------|

---------------0-------------------------------------|
-0-1-3-3-------0-------------------------------------|
---------4-2-0-0-------------------------------------|
---------------0-------------------------------------|
-----3-------0-0-------------------------------------|
---------------x-------------------------------------|


Outro:

----------------------------------------------------|
--------------------0-------------------------------|
---0-----------0---T--------------------------------|
--2----2s4---------A--------------------------------|
-3-----s5----5-----P--------------------------------|
--------------------0-------------------------------|

--------------------3-------------------------------|
----------------------------------------------------|
---0-----------0---T--------------------------------|
--2----2s4---------A--------------------------------|
-3-----s5----5-----P--------------------------------|
--------------------0-------------------------------|

----------------------------------------------------|
-----------------T----------------------------------|
---0-----------0-A----0-----0---0-------------------|
--2----2s4-------P-----------------0----------------|
-3-----s5----5--------------------------------------|
--------------------3----2----0---------------------|

----------------------------------------------------|
----------------------------------------------------|
---0-----------0-----0------------------------------|
--2----2s4--------4---------------------------------|
-3-----s5----5--------------------------------------|
---------------------3------------------------------|
Tap to rate this tab
 
# A B C D E F G H I J K L M N O P Q R S T U V W X Y Z