Song name
# A B C D E F G H I J K L M N O P Q R S T U V W X Y Z

Parokya Ni Edgar - Gitara tab

 Gitara - PnE Solos Tutorial
Tuning: Standard
Capo: N/A
Credits: BoogieBoy36


1st Solo. Played at the beginning of the song

E|------------------3/5\3--|--7\5--5--7--8--15\2-------------------|-
B|--3/5--5--5/7--7--3/5\3--|--8--------------------------3---------|-
G|-------------------------|------------------------3/4-----4\2p0--|-
D|-------------------------|---------------------------------------|-
A|-------------------------|---------------------------------------|-
E|-------------------------|---------------------------------------|-


E|------------------3/5-x--3/5\3-|--7\5--5--7--8--12--10--7--8--5--3--|
B|--3/5--5--5/7--7--3/5-x--3/5\3-|--8---------------------------------|
G|-------------------------------|------------------------------------|
D|-------------------------------|------------------------------------|
A|-------------------------------|------------------------------------|
E|-------------------------------|------------------------------------|


2nd Solo. Played in middle the of the song


E|----------------------------------------|--12--10-----------------------------|
B|-------7--8--7------------7--8--10--12--|----------12--12/13--12--10--12--10--|
G|--7h9-----------7----7h9----------------|-------------------------------------|
D|----------------------------------------|-------------------------------------|
A|----------------------------------------|-------------------------------------|
E|----------------------------------------|-------------------------------------|


E|--10--10--10--7--8--10----12--10\7--7----|-
B|-----------------------------------------|-
G|-----------------------------------------|-
D|-----------------------------------------|-
A|-----------------------------------------|-
E|-----------------------------------------|-

E|--7--8--7------------------------7--8--10--7--10/12-----|
B|-----------8--8/10--8--7--8--10-------------------------|
G|--------------------------------------------------------|
D|--------------------------------------------------------|
A|--------------------------------------------------------|
E|--------------------------------------------------------|


3rd Solo. Played at the end of the song


E|--7------7----|-5------5----|--4---2/4-5\4-2h4p2---------|-
B|-----0-----0--|----0-----0--|----------------------------|-
G|--------------|-------------|----------------------------|-
D|--5----5-5----|-4----4-4----|--2-------------------------|-
A|--------------|-------------|----------------------------|-
E|--------------|-------------|----------------------------|-

E|-5---5h7-7/8\7-5h7p5--------|-
B|-5--------------------5-----|-
G|-5----------------------5---|-
D|-7--------------------------|-
A|-0--------------------------|-
E|----------------------------|-


E|----------2h3p2h3p2-5\3\2p0h2p0---------------------------------------------|-
B|--------3-----------------------3p2p0-3p2p0---------------------------------|-
G|--------------------------------------------4p2p0-4p2p0---------------------|-
D|--0-0---------------------------------------------------5\4-2h4p2-----------|-
A|------------------------------------------------------------------5\4-2-----|-
E|------------------------------------------------------------------------0~--|-

E|-12----|
B|-12----|
G|-12----|
D|-------|
A|-------|
E|-------|
Tap to rate this tab
# A B C D E F G H I J K L M N O P Q R S T U V W X Y Z