Song name
# A B C D E F G H I J K L M N O P Q R S T U V W X Y Z

Parokya Ni Edgar - Bagsakan tab

This is my first time submitting a tab so, i hope you like it...

Parokya ni Edgar, Francis M. Gloc 9
Bagsakan
Submitted by: Mhel Andrei J.legaspi

Intro:
e|-------------------------------------------------------------|
B|-------------------------------------------------------------|
G|-------------------------------------------------------------|  Repeat 3x
D|---------5-----5/8--7--5--------5----------------------------|  
A|---7--7-----7-------------7--7-----7--5--5---5---------------|  
E|-------------------------------------------------------------|
Nandito na si Chito si Chito Miranda...
Nandito na si Kiko si Francis Magalona...
Nandito rin si Gloc 9 Wala syang apelyido...

e|-------------------------------------------------------------|
B|-------------------------------------------------------------|
G|-------------------------------------------------------------|              
D|---------5-----5/8--7--5--------5----------------------------|  
A|---7--7-----7-------------7--7-----7--5--5---5---------------|  
E|-------------------------------------------------------------|
Mag-babagsakan dito in 5,4,3,2...
Tap to rate this tab
# A B C D E F G H I J K L M N O P Q R S T U V W X Y Z