Song name
# A B C D E F G H I J K L M N O P Q R S T U V W X Y Z

Parokya Ni Edgar - Pangarap Lang Kita tab

-------------------------------------------------------------------------------
                            PANGARAP LANG KITA - Parokya ni Edgar
-------------------------------------------------------------------------------
Tabbed by:Randy Andal Ante
E-mail:barakotayo@gmail.com

Tuning: Standard
 Instrumental version
 Acoustic guitar


 Capo on 3rd fret


   Intro short version
e|---------------------------------------------------------------------0-0-0-------|
B|--------------------------------------0--4h--0-------------2--4h--2--0-0-0-------|
D|---2---4-------------4---2--4~---2--4-------------4--2--4------------0-0-0-------|
A|-3---5-------------5---3-------3--5-------------5--3-----------------2-2-2-------|
E|---------------------------------------------------------------------3-3-3-------|

  verse 1
e|------------------------------------------------------------------------------------|
B|---------3--0---0-0----------0--3--0---3------------3--0--5p--0--3p--0--------------|
G|------0-------2---0--------0---------2---2--0--0--3-------------------0-0-0---------|
D|--2--2------------2---2--2------------------2-------------------------0-0-0---------|
A|-3----------------3--3----------------------3-------------------------2-2-2---------|
E|----------------------------------------------------------------------3-3-3---------|
                                             di tulad sa yo   imposible

e|-------------------------------------------------------------------------------|
B|-----------0-3-0-----------------0-3-------------------------------------------|
G|----0--2h---------0-0-0-0----0-2------4--2--0--2~~-----------------------------|
D|--2---------------2-2-2-2---2--------------------------------------------------|
A|-3----------------3-3-3-3--3---------------------------------------------------|
E|-------------------------------------------------------------------------------|
                               akoy dukhaaaaaaaaaa
e|------------------------------------------------------------------------------|
B|--------0--5h-------------0--0--5h--0--3h--0----------------------------------|
G|---0-2--------0--4--0--2------------------------------------------------------|
D|--2---------------------------------------------------------------------------|
A|-3----------------------------------------------------------------------------|
E|------------------------------------------------------------------------------|
  sa tv                          mangyayareee


   Chorus
e|---------------------------------------------------------------------------|
B|-0--0--0--0--0--3--3--3---3--0--0--0--0--0---0--0--0--0--0--3--3--3--3--3--|
G|-0--0--0--0--0--2--2--2---2--0--0--0--0--0---0--0--0--0--0--2--2--2--2--2--|
D|-2--2--2--2--2--0--0--0---0--0--0--0--0--2---2--0--0--2--2--0--0--0--0--0--|
A|-3--3--3--3--3--0--0--0---0--2--2--2--2--3---3--2--2--3--3--0--0--0--0--0--|
E|-0--0--0--0--0--0--0--0---0--3--3--3--3------3--3--------------------------|
                           WALA AKONG MAGAGAWA       TANGGAP     KO    TO
e|-----------------------------------------------------------------------------------|
B|-0--0--0--0--0--0--0--0--0---------------------------------------------------------|
G|-0--0--0--0--0--0--0--0-0----0--0-2--2--4H--2--0-----------------------------------|
D|-0--0--0--0--2--2--2--0--0---------------------------------------------------------|
A|-2--2--2--2--3--3--3--0--0---------------------------------------------------------|
E|-3--3--3--3-----------0--0---------------------------------------------------------|
     AKING   SINTAAAAAA        PANGARAP LANG KITA AH..

   play the intro, then verse again



************************************

| /   slide up
| \   slide down
| h   hammer-on
| p   pull-off
| ~   vibrato
| +   harmonic
| x   Mute note
| b   Bend
| pb  Pre-bend
| br  Bend release
| pbr Pre-bend release
| brb Bend release bend

************************************
Tap to rate this tab
 
# A B C D E F G H I J K L M N O P Q R S T U V W X Y Z