Guitaretab - guitar tabs
Song name
# A B C D E F G H I J K L M N O P Q R S T U V W X Y Z

Parokya Ni Edgar - Oka Tokat tab

okatokat::parokya ni edgar::okatokat theme
e|----------------------------|----------------------------------|
B|------0-----0--------------|------0-------0--------------------|
G|----0-----0----------------|----0-------0----------------------|
D|----------------------------|----------------------------------|
A|--7-----7-----7------------|--6-------6-------6----------------|
E|----------------------------|----------------------------------|

e|----------------------------|----------------------------------|
B|-------0-----0-------------|-------0-----0---------------------|
G|-----0-----0---------------|-----0-----0-----------------------|
D|----------------------------|----------------------------------|
A|--5-----5------5-----------|--4------4------4------------------|
E|----------------------------|----------------------------------|
[ Tab from: http://www.guitaretab.com/p/parokya-ni-edgar/42765.html ]
e|----------------------------|----------------------------------|
B|-------0-----0-------------|-------0-----0---------------------|
G|-----0-----0---------------|-----0-----0-----------------------|
D|----------------------------|----------------------------------|
A|--7-----7------7-----------|--8------8------8------------------|
E|----------------------------|----------------------------------|

e|-----------------------------------------------------|    repeat again...
B|-------0-----0---------------------------------------|
G|-----0-----0-----------------------------------------|    "hoy mga pare, ano
D|----------------------------|    nang nangyari dito--|
A|--7-----7------7-------------------------------------|    bakit biglang namutla
E|-----------------------------------------------------|    ang mukha mo?"

"nanginginig, tumindig ang balahibo, gusto kong sumigaw,
gusto kong tumakbo!"...
Related for Oka Tokat tab
Advertisement will be closed in 10 seconds