Song name
# A B C D E F G H I J K L M N O P Q R S T U V W X Y Z

Parokya Ni Edgar - Wag Mo Na Sana tab

Help us improve GuitareTab! Take a short survey!
WAG MO NA SANA by PAROKYA NI EDGAR
Tabbed by: Rakizta_Ralph
Email: fast_break20@yahoo.com.ph (friendster.com)

INTRO:

	   G			 C
e|-------------------|--------------------|
B|---------0---------|---------0h1-0------|
G|-----------0-------|-------0-------0----|
D|------0------0-----|-----2-----------2--|   (3x)
A|----2----------2---|---3----------------|
E|--3----------------|--------------------|

        Em	     D		C
e|-------------|---2-2---|---0-0---0---|
B|-------------|---3-3---|---1-1---3---|
G|-------------|---2-2---|---0-0---0---|
D|------2-2----|---------|---2-2-------|
A|------2-2----|---------|---3-3-------|
E|------0-o----|---------|-------------|



CHORDS: G-C 4x THEN Em-D-C 2X
Naiinis na ako sa iyo. . . .

	   G			 C
e|-------------------|--------------------|
B|---------0---------|---------0h1-0------|
G|-----------0-------|-------0-------0----|
D|------0------0-----|-----2-----------2--|   (4x)
A|----2----------2---|---3----------------|
E|--3----------------|--------------------|

        Em             D            C
e|--------0------|-----------|----------0--|
B|----------0----|------3----|--------3----|
G|---------------|----2---0--|------0------|
D|---------------|--0--------|----2--------|   (2x)
A|----2----------|-----------|--3----------|
E|--0------------|-----------|-------------|

			 D
e|-----------3----------5--------3--------2---|
B|---------3---3----------3--------3----------|
G|-------5-------5---5------5--------5--------|
D|-----5-----------5----------5--------5------|
A|---3----------------------------------------|
E|--------------------------------------------|

Ano pa bang. . .

	   G			 C
e|-------------------|--------------------|
B|---------0---------|---------0h1-0------|
G|-----------0-------|-------0-------0----|
D|------0------0-----|-----2-----------2--|   (4x)
A|----2----------2---|---3----------------|
E|--3----------------|--------------------|

     
         Em             D            C
e|--------0------|-----------|----------0--|
B|----------0----|------3----|--------3----|
G|---------------|----2---0--|------0------|
D|---------------|--0--------|----2--------|   (2x)
A|----2----------|-----------|--3----------|
E|--0------------|-----------|-------------|

			 D
e|-----------3----------5--------3--------2---|
B|---------3---3----------3--------3----------|
G|-------5-------5---5------5--------5--------|
D|-----5-----------5----------5--------5------|
A|---3----------------------------------------|
E|--------------------------------------------|


Chorus: 
E-G#m-A(2x)
e|---------------------------------------------------|
B|--------------------------------0-2---------0h2-0--|
G|--------1---------------------------------2--------|
D|------2-----------4h6--------2----------2----------|
A|----2-----------6----------0----------0------------|
E|--0-----------4------------------------------------|

E-C#m-A-F#m
e|-----------------------------------------|
B|--------------------------2---------2----|
G|--------1--------1----1-2---------2------|
D|------2--------2----------------2--------|
A|----2--------2----------------0----------|
E|--0--------0-----------------------------|

A-B-E
e|-----------------------------0-----------0----|
B|---------2--------4---------------------------|
G|-------2--------4-----------------------------|
D|-----2--------4-----------2-----------2-------|
A|---0--------2-----------2-----------2---------|
E|----------------------0-----------0-----------|


| /  slide up
| \  slide down
| h  hammer-on
| p  pull-off
| ~  vibrato
| +  harmonic
| x  Mute note

===============================================================================


Related for Wag Mo Na Sana tab