Song name
# A B C D E F G H I J K L M N O P Q R S T U V W X Y Z

Parokya Ni Edgar - The Yes Yes Show tab

title: the yes yes show
artist: Parokya ni Edgar
transcribed by: richard santos 
e-mail: meknowsall@yahoo.com

intro:

guitar 1

e|---7----1---
B|---8----2---
G|---9----3---   (2x)
D|---9----3---
A|---7----1---
E|---x----x---

guitar 2

e|--------------------------------------------
B|-7h8-8-8-7h8-8-8-7h8-8/13-13-12----13-12----
G|--------------------------------12-------12-  (2x)
D|--------------------------------------------
A|--------------------------------------------
E|--------------------------------------------

chorus:

guitar 1

e|---7----1---
B|---8----2---
G|---9----3---   (2x)
D|---9----3---
A|---7----1---
E|---x----x---

guitar 2

e|-----7------------15------------7----------5-
B|---8---8-------12----12-------8---8------5---
G|-7-------7--12----------12--7-------7--5-----
D|---------------------------------------------
A|---------------------------------------------
E|---------------------------------------------

verse:

guitar 1-same as the intro

guitar 2-same as the intro

__________________________________________________

ENJOY!!!!!!!!!!!!!

for any comments, just e-mail me...
Tap to rate this tab
 
# A B C D E F G H I J K L M N O P Q R S T U V W X Y Z