Song name
# A B C D E F G H I J K L M N O P Q R S T U V W X Y Z

Parokya Ni Edgar - Iwanan Mo Na Siya tab

song:
tabbed by:alay ponsica
email any comments:alay_ponsica@yahoo.com 

Intro:

e|------------------------------------5-7-9-10-9------------|
B|-10-----------------8/10----------5------------10---------|
G|--9--9-7-7-6-7-7/9--9/11/9------6-----------------9-7-6h7-|
D|------------------------------7---------------------------|
A|----------------------------7-----------------------------|
E|----------------------------------------------------------|

e|---------------------|
B|---------------------|
G|-7-------------------|
D|---7/9---------------|
A|-------7-7-5-7-------|
E|---------------5-----|

Solo:

e|--------------------------------------------------------|
B|-7/10-10-10-10-9-7-----------------------------10-12-10-|
G|-------------------9-9-9-9-7-6-7-7-7-6-7-7/9-9----------|
D|--------------------------------------------------------|
A|--------------------------------------------------------|
E|--------------------------------------------------------|

e|-10-9----------------------------------|
B|------10----10-------------------------|
G|---------9---9-9-7--7------------------|
D|--------------------7---9h7------------|
A|----------------------------9-7--7/12--|
E|---------------------------------------|

yan wala munang outro hindi ko pa na pag-aralan hehe enjoy kayo!!
Tap to rate this tab
# A B C D E F G H I J K L M N O P Q R S T U V W X Y Z