Guitaretab - guitar tabs
Song name
# A B C D E F G H I J K L M N O P Q R S T U V W X Y Z

Parokya Ni Edgar - Choco Latte tab

CHOCOLATTE by PAROKYA NI EDGAR

Tabbed by: Rakizta_Ralph
Email: fast_break20@yahoo.com.ph(friendster.com)

ADLIB:INTRO

e|----------------------------------------------------------------9-12-10-10-|
B|-----10-1212b14--12b14b1212b14b12--10------1010h12p10-10-12-------------|
G|--11-------------------------------------11--------------------------------|
D|---------------------------------------------------------------------------|
A|---------------------------------------------------------------------------|
E|---------------------------------------------------------------------------|

e|--9-9h10--9-------|--------------------------------------------------------|
B|-------------10---|-----10-12-12b14--12b14b1212b14b12--10-----------------|
G|------------------|--11-------------------------------------11--9-9h11p9---|
D|------------------|--------------------------------------------------------|
A|------------------|--------------------------------------------------------|
E|------------------|--------------------------------------------------------|

e|----------------------------12\--------------------------------------------|
B|---------------10--12--10--------------------------------------------------|
G|--9----------9-------------------------------------------------------------|
D|----11----11---------------------------------------------------------------|
A|---------------------------------------------------------------------------|
E|---------------------------------------------------------------------------|


ADLIB: 0min:52sec

e|--------------------------------------12---------------12\-----------------|
B|-----------10----12-10----12-10----10---------10-12-10---------------------|
G|---9--9/11----11-------11-------11--------6/9------------------------------|
D|---------------------------------------------------------------------------|
A|---------------------------------------------------------------------------|
E|---------------------------------------------------------------------------|


ADLIB: 2min:21sec
[ Tab from: http://www.guitaretab.com/p/parokya-ni-edgar/47608.html ]
e|--17-17--------------------------------------------------------------------|
B|--------17-17--14-14--12-12--10----1010h12p10--10-12-14--17-15-15---------|
G|--------------------------------11-----------------------------------------|
D|---------------------------------------------------------------------------|
A|---------------------------------------------------------------------------|
E|---------------------------------------------------------------------------|

					         ==(tappings)==
e|-------------------14-----14-16----14-16--h17p14h16h19p14h16(4x)-----------|
B|--14-15-17---15-17-----17-------17-----------------------------------------|
G|---------------------------------------------------------------------------|
D|---------------------------------------------------------------------------|
A|---------------------------------------------------------------------------|
E|---------------------------------------------------------------------------|



e|---17-17-------------------------------------------------------------------|
B|---------17-17--14-14--12-12-------------------------------9-10--9-10------|
G|-----------------------------14-14-14--11-11/14-----9-9-11------------11---|
D|-------------------------------------------------11------------------------|
A|---------------------------------------------------------------------------|
E|---------------------------------------------------------------------------|

e|---------------------------------------------------------------------------|
B|----------9-10-12--9-10------------9-10-12---------------------------------|
G|-----9-11---------------11----9-11-------------9-9\------------------------|
D|--11-----------------------11---------------11-----------------------------|
A|---------------------------------------------------------------------------|
E|---------------------------------------------------------------------------|

Sory may mali sa last part ng adlib neto..,


| /  slide up
| \  slide down
| h  hammer-on
| p  pull-off
| ~  vibrato
| +  harmonic
| x  Mute note
===============================================================================


Related for Choco Latte tab