Song name
# A B C D E F G H I J K L M N O P Q R S T U V W X Y Z

Parokya Ni Edgar - Picha Pie tab

hey people! Picha pie is a song na parang napakahirap na song pero sobrang dali!
Power chords lang to, pero yun na yung boung kanta.

Picha pie - PAROKYA NI EDGAR

Standard tuning or haft step down

Light or Heavy Distortion

Main Riff:

e|----------------------------------------------------------------|
B|----------------------------------------------------------------|
G|-----------------7-7-7--7-7-7-7------------------5-5-5--5-5-5-5-|
D|-7-7-7--7-7-7-7--7-7-7--7-7-7-7--5-5-5--5-5-5-5--5-5-5--5-5-5-5-|
A|-7-7-7--7-7-7-7--5-5-5--5-5-5-5--5-5-5--5-5-5-5--3-3-3--3-3-3-3-|
E|-5-5-5--5-5-5-5------------------3-3-3--3-3-3-3-----------------|

e|-----------------------------------------------------------------|
B|-----------------------------------------------------------------|
G|-----------------3-3-3--3-3-3-3--1-1-1-1-1-1-1-1-1-1-1-1-1-1-1-1-|
D|-3-3-3--3-3-3-3--3-3-3--3-3-3-3--2-2-2-2-2-2-2-2-2-2-2-2-2-2-2-2-|
A|-3-3-3--3-3-3-3--1-1-1--1-1-1-1--2-2-2-2-2-2-2-2-2-2-2-2-2-2-2-2-|
E|-1-1-1--1-1-1-1------------------0-0-0-0-0-0-0-0-0-0-0-0-0-0-0-0-|
                                      (THIS IS BASICALLY E)

Outro: in the last run of the Main Riff, slow down in the last E and do:

e|--------------------|
B|--------------------|
G|-2------------------|
D|-2-(LET IT RING...)-|
A|-0------------------|
E|--------------------| 

Optional Outro: When the First guitar is slowing down for the Outro, Second Guitar do this:

e|-0---0----------------------------|
B|---6---3--------------------------| 
G|---------5--0--2-(LET IT RING...)-|
D|---------------2------------------|
A|---------------0------------------|
E|----------------------------------|

THE FIRST AND SECOND GUITAR MUST END IN A5 AT THE SAME TIME.

WELL THAT'S IT, HAPPY PLAYINGS MY PINOY BROS (OR SIS)
Tap to rate this tab
 
# A B C D E F G H I J K L M N O P Q R S T U V W X Y Z