Song name
# A B C D E F G H I J K L M N O P Q R S T U V W X Y Z

Parokya Ni Edgar - Silvertoes tab

SiLverToes By PArokya ni EdgAr, Hi nGA PLa kAng Glen sayawan, harron jardinico, roger benedicto,
dwight crismundo, Henry Griñen at kAng Mhelbert estrada.. mGA gwapo ni siLAng mGA BATaa.. hehe...

Tabbed by: Ric Tobias
E-add: Rtob_03@yahoo.com

Verse: (Palm MutE)
e -------------------------------------------------------------|
b -------------------------------------------------------------|
g -------------------------------------------------------------|
d -----------------4--4--4--4-----5--5--5--5---7--7--7--7------|  4x
a ----5--5--5--5---2--2--2--2-----3--3--3--3---5--5--5--5------|
e ----3--3--3--3-----------------------------------------------|

Wag ka nang mag-alala
hinding hindi ako in love sa yo
bakit ba pakiramdam mo pa yata
lahat kami ay naaakit mo
miss miss pakitigil lang please
ang iyong pagpapantasya
hindi ka na nakakatuwa
papagulpi na kita sa gwardyang may batuta

(G - Bm - C - D)
ha. . .ya ya. . ya ya ya .. .

Verse 2:

e -------------------------------------------------------------|
b -------------------------------------------------------------|
g -------------------------------------------------------------|
d -----------------4--4--4--4-----5--5--5--5---7--7--7--7------|  4x
a ----5--5--5--5---2--2--2--2-----3--3--3--3---5--5--5--5------|
e ----3--3--3--3-----------------------------------------------|

Hindi ko talaga ma-gets
kung bakit ka ganyan
ang feeling moy sabik sa iyo
ang lahat ng kalalakihan
sorry pagpasensyahan mo na
mali talaga ang iyong inaakala
lahat kami ay nandidiri sa iyo
ikaskas mo na sana ang mukha mo sa simento

Chorus:
e ---------------------------------------------------------|
b ---------------------------------------------------------|
g ---------------------------------------------------------|
d ----9--9--9-----5--5--5--5---------------7--7--7--7------|  6x
a ----7--7--7-----3--3--3--3---5--5--5-----5--5--5--5------|
e -----------------------------3--3--3---------------------|

Di kami na tu-turn-on
sa kutis mong kulay CHAMPURAD0!!
di kami naaakit
sa labi mong GARAMUCHoOh!!
oh please naman pakitanggap mo nalang ang katotohanan
na ganyan ka pinanganak
wag ka nang magpapanggap
na ikaw ay isang dalagang ubod nang ganda
kahit na alam naman natin na ang karakas mo
ay ubod nang sama

(Adlib: G – Bm – C - D)
e ---------------------------------------------------------8---7--|
b -------8--7-------------------7---10--8-----7--8--10------10----|
g ---/7-------7----------7--9--------------9----------------------|
d ------------------7--9------------------------------------------|
a ----------------------------------------------------------------|
e ----------------------------------------------------------------|

-7--8--8--10--8/10/8--8/7---------------------------15--12--------|
---------------------------10--8-------13------------------15-----|
------------------------------------------/12----12---------------|
------------------------------------------------------------------|
------------------------------------------------------------------|
------------------------------------------------------------------|

-------------------------------------------------------8----7-----|
-----8--7-------------------7---10--8----7--8--10--------10-------|
-/7-------7----------7--9--------------9--------------------------|
--------------7--9------------------------------------------------|
------------------------------------------------------------------|
------------------------------------------------------------------|

7--8--8--10--8/10/8-------8/7-------------------------15--12------|
-------------------------------10--8---------13--------------15---|
---------------------------------------------/12---12-------------|
------------------------------------------------------------------|
------------------------------------------------------------------|
------------------------------------------------------------------|

------------------------------------------------------------------|
-17--15----12/13/12-----12----------------------------------------|
--------------------------14-------14(b)--14*--14*--12------------|
---------------------------------------------------------------14-|
------------------------------------------------------------------|
------------------------------------------------------------------|

------------------------------------------------------------------|
--------------------------------------------12--13p.o.12----12----|
-----------12-----14p.o.12----12---12h.o.14--------------14-------|
--12h.o.14------------------14------------------------------------|
------------------------------------------------------------------|
------------------------------------------------------------------|


--------15--17p.o.15-----15--17(b)----15--19-17--15--19--17--15---|
-13/17----------------17------------------------------------------|
------------------------------------------------------------------|
------------------------------------------------------------------|
------------------------------------------------------------------|
------------------------------------------------------------------|


-----------15--17--19--15h.o.17--15--19-17-15------15--17p.o.15---|
-19--17--15-17--19-----------------------------19-----------------|
------------------------------------------------------------------|
------------------------------------------------------------------|
------------------------------------------------------------------|
------------------------------------------------------------------|

---------15--12----------------------------------------------|
-19--17------------15--13--12h.o.13--15p.o.13----------------|
-----------------------------------------------12/14--12-----|
-------------------------------------------------------------|
-------------------------------------------------------------|
-------------------------------------------------------------|
LAST verse:

e -------------------------------------------------------------|
b -------------------------------------------------------------|
g -------------------------------------------------------------|
d -----------------4--4--4--4-----5--5--5--5---7--7--7--7------|  4x
a ----5--5--5--5---2--2--2--2-----3--3--3--3---5--5--5--5------|
e ----3--3--3--3-----------------------------------------------|

siguro nga naman ay may mga mas pangit pa sa yo
pero at least hindi sila nagpapacute katulad mo
nakakabadtrip ka nakakairita twing kitay nakikita
di ko alam bat ang laki ng ulo mo
magingat ingat ka baka ikaw ay sagasaan ko

2nd Chorus:
e ---------------------------------------------------------|
b ---------------------------------------------------------|
g ---------------------------------------------------------|
d ----9--9--9-----5--5--5--5---------------7--7--7--7------|  6x
a ----7--7--7-----3--3--3--3---5--5--5-----5--5--5--5------|
e -----------------------------3--3--3---------------------|

Di kami na tu-turn-on
sa kutis mong kulay CHAMPURAD0!!
di kami naaakit
sa labi mong GARAMUCHoOh!!
oh please naman pakitanggap mo nalang ang katotohanan
na ganyan ka pinanganak
wag ka nang magpapanggap
na ikaw ay isang dalagang ubod nang ganda
kahit na alam naman natin na ang karakas mo
ay ubod nang sama..

Last chorus:
e ---------------------------------------------------------|
b ---------------------------------------------------------|
g ---------------------------------------------------------|
d ----9--9--9-----5--5--5--5---------------7--7--7--7------|  4x
a ----7--7--7-----3--3--3--3---5--5--5-----5--5--5--5------|
e -----------------------------3--3--3---------------------|

oh please naman pakitanggap mo nalang ang katotohanan
na ganyan ka pinanganak
wag ka nang magpapanggap
na ikaw ay isang dalagang ubod nang ganda
kahit na alam naman natin na ang karakas mo
ay ubod nang sama..

EnD!...
Tap to rate this tab
 
# A B C D E F G H I J K L M N O P Q R S T U V W X Y Z