Song name
# A B C D E F G H I J K L M N O P Q R S T U V W X Y Z

Parokya Ni Edgar - Suave tab

hahaha... try nyo.

e|-2--------------0-4-5-4/5-0---------5-7-7-5-4-----2-2/4-|
B|-3--3--3--2-3-0-------------2-0---7-----------7--2------|
G|-4-4--4--4-----------------------6--------------2-------|
D|--------------------------------------------------------|
A|--------------------------------------------------------|
E|--------------------------------------------------------|

e|-2-------------------------------------------2-|
B|-3--3--3--2-3-0---------------3-2-2/3--------2-|
G|-4-4--4--4-----2-0--2-1/2-2/1--------2-1-----2-|
D|-------------------2---------------------4-2---|
A|-----------------------------------------------|
E|-----------------------------------------------|
Tap to rate this tab
# A B C D E F G H I J K L M N O P Q R S T U V W X Y Z