Song name
# A B C D E F G H I J K L M N O P Q R S T U V W X Y Z

Parokya Ni Edgar - Yes Yes Show tab

teka post ko lang server ko ha hehe http://www.quest-ro.cjb.net

Intro :

E|--7------------------------------------7--------------------|
B|--8------------------------------------7--------------------|
G|--9------------------------------------7--------------------|   x2
A|--9------------------------------------9--------------------|
D|--7------------------------------------9--------------------|
E|--0------------------------------------7--------------------|

after that timingan mo na lang paulit ulit lang naman yan hehe...

E|--7------------------------------------7--------------------|
B|--8------------------------------------7--------------------|
G|--9------------------------------------7--------------------|
A|--9------------------------------------9--------------------|
D|--7------------------------------------9--------------------|
E|--0------------------------------------7--------------------|

You better get ready for a big surprise, you think it's almost over...

la lang natripan ko lang habagn kumakapa ng chords hehe

comment ang kau noob lang naman me ^^
Tap to rate this tab
# A B C D E F G H I J K L M N O P Q R S T U V W X Y Z