Song name
# A B C D E F G H I J K L M N O P Q R S T U V W X Y Z

Parokya Ni Edgar - First Day Funk tab

"FIRST DAY FUNK"
 ng Parokya ni Edgar
(let's do the funk!!!) 

 Bass tabs:
G|---------------------|
D|---5-3---3---3---3-5-| paulit-ulit lang
A|-------5---5---5-----|
E|-3-------------------|

 Guitar tabs:(solo)
e|------------------------------------------------------------|
B|-10-10-8-10-------------------------------------------------|
G|------------9-7----7h9-999999---7h9---7---6h7p6h7p6---------|
D|-----------------9------------------9-----------------------|
A|------------------------------------------------------------|
E|------------------------------------------------------------|

e|------------------------------------------------------------|
B|------------------------------------------------------------|
G|------------------------------------------------------------|
D|-------7---9--7---7--9-7--9-7---8s9--7----------------------|
A|---7s9---9------9-------------9-----------------------------|
E|------------------------------------------------------------|

e|---------------------------------------------------10-------|
B|-----------------------------------7-10-7---10s12-----------|
G|-----7---7-9--9-7---7-9-9--9--9-9---------------------------|
D|---9---9----------9-----------------------------------------|
A|------------------------------------------------------------|
E|------------------------------------------------------------|

e|--------------------------------------------------------------|
B|---10-7--9---7--9-7--7-9-7-------15---14-----12---------------|
G|-----------8-------8--------------------11s13--13-11-14-14-13-|
D|-------------------------------16---16------------------------|
A|--------------------------------------------------------------|
E|--------------------------------------------------------------|

e|------------------------------------------------------------------------|
B|----14--12----10---------------------12--10--7--------------------------|
G|------------9s11-11-9-12-12-11-11-11-----------8s10-8-11-11-10-11-11-11-|
D|--14---14------------------------------11--11---------------------------|
A|------------------------------------------------------------------------|
E|------------------------------------------------------------------------|

e|---------------------------------------|
B|---7--9s11-11-11-11-11-12-14-----------|
G|---------------------------------------|
D|---------------------------------------|
A|---------------------------------------|

or simply...
(for verse)
e-----5--5--3----------|----10--10--8--------------|
G------------5--3--5---|---------------10-8--10---|
B----------------------|---------------------------|
D----------------------|---------------------------|
A----------------------|---------------------------|
E----------------------|---------------------------|

chord pattern: A-G-A

un lng!!! try nyo, ang saya pakinggan!!
let's do the funk..let's do the 1st day funk!!
paki rate nman 'to.. pra to sa tropa ko!!! knila
james, benja, teo, charlon, lonnar, ryan!!! SpiderS!!!
pati n rn kay REGELLE SHAYNE MIRANDA!!! 
i love you!!!c",)
Tap to rate this tab
# A B C D E F G H I J K L M N O P Q R S T U V W X Y Z