Song name
# A B C D E F G H I J K L M N O P Q R S T U V W X Y Z

Parokya Ni Edgar - Victor Could tab

Intro:
(a)
e|--------6h7-7h8--7--------7--------10-8-7-------7h8----------------------|
B|--8--10-------------8--10---8--10---------10-8------7-8------------------|
G|---------------------------------------------------------7---------------|
D|-------------------------------------------------------------------------|
A|-------------------------------------------------------------------------|
E|-------------------------------------------------------------------------|

(b)
e|--------6h7-7h8--7--------7--------10-8-7-8------------------------------|
B|--8--10-------------8--10---8-10------------10---7-8---8-----------------|
G|-----------------------------------------------------9---7---------------|
D|-------------------------------------------------------------10-9-7------|
A|--------------------------------------------------------------------10-9-|
E|-------------------------------------------------------------------------|

                       ( repeat b after 1st chorus )

(interlude)
e|--------6h7-7h8--7--------7--------10-8-7--------------------------------|
B|--8--10-------------8--10---8-10------------10--8----7h8-----------------|
G|----------------------------------------------------------7--------------|
D|-------------------------------------------------------------------------|
A|-------------------------------------------------------------------------|
E|-------------------------------------------------------------------------|

(outro)
e|--------6h7-7h8--7--------7--------10-8-7-------7h8-----------5-7--------|
B|--8--10-------------8--10---8--10---------10-8------7-8------------------|
G|---------------------------------------------------------7---------------|
D|-------------------------------------------------------------------------|
A|-------------------------------------------------------------------------|
E|-------------------------------------------------------------------------|

Tap to rate this tab
# A B C D E F G H I J K L M N O P Q R S T U V W X Y Z