Song name
# A B C D E F G H I J K L M N O P Q R S T U V W X Y Z

Parokya Ni Edgar - Bierdi tab

Solo: (Distortion)


|---------------------------|---------19b--17-16-17-16-----------------|
|-------14---15----17---17b-|--17--15-----------------17-17b-14-12-10--|
|--13/14--14----14---14-----|------------------------------------------|
|---------------------------|------------------------------------------|
|---------------------------|------------------------------------------|
|---------------------------|------------------------------------------|

|-------------------9-10-12p10---------------|--------------------------5-7-9-10-12--|
|-9/10/9-10-12p10p9------------12-10-9-------|--------------------7-5-7--------------|
|--------------------------------------11-9--|------------7-6-7-9--------------------|
|--------------------------------------------|--6/7/6-7-9----------------------------|
|--------------------------------------------|---------------------------------------|
|--------------------------------------------|---------------------------------------| 
Tap to rate this tab
 
# A B C D E F G H I J K L M N O P Q R S T U V W X Y Z