Song name
# A B C D E F G H I J K L M N O P Q R S T U V W X Y Z

Parokya Ni Edgar - Nescafe tab

tuning-{ eb bb gb db Ab Eb }

Intro-
GtrI & II
|---------------------------------------------------|
|---------------------------------------------------|
|------5-6-7--7-------------5-5-4-5-4---------------|
|-7-7--5-6-7--7--7-6-5--5---5-5-4-5-4---------------|2X
|-7-7--3-4-5--5--7-6-5--5---3-3-2-3-2---------------|
|-5-5------------5-4-3--3---------------------------|


Verse-GtrI & II
A       D           G                 C    B 
patakbo...          ibat iba...  pinatutunguhaan...                  
|--5-5-5-5-X-X-X-X-3-3-3-3-3-3------------------------------------|
|--5-5-5-5-7-7-7-7-3-3-3-3-3-3------------------------------------|
|--6-6-6-6-7-7-7-7-4-4-4-4-4-4---5-5-5-4-4-4----------------------|2X
|--7-7-7-7-7-7-7-7-5-5-5-5-5-5---5-5-5-4-4-4----------------------|
|--7-7-7-7-5-5-5-5-5-5-5-5-5-5---3-3-3-2-2-2----------------------|
|--5-5-5-5---------3-3-3-3-3-3------------------------------------|

iNTRO ULI..


Verse2-GtrI & II
ng bilis ng mundo...
A       D           G                 C    B                  
|--5-5-5-5-X-X-X-X-3-3-3-3-3-3------------------------------------|
|--5-5-5-5-7-7-7-7-3-3-3-3-3-3------------------------------------|
|--6-6-6-6-7-7-7-7-4-4-4-4-4-4---5-5-5-4-4-4----------------------|2X
|--7-7-7-7-7-7-7-7-5-5-5-5-5-5---5-5-5-4-4-4----------------------|
|--7-7-7-7-5-5-5-5-5-5-5-5-5-5---3-3-3-2-2-2----------------------|
|--5-5-5-5---------3-3-3-3-3-3------------------------------------|


cHORUS-GtrI & II
A cup in hand....
|--5--|--x--|--5---|---x-------------------------------|
|--5--|--7--|--5---|---7-------------------------------|
|--6--|--7--|--6---|---7-------------------------------|2x
|--7--|--7--|--7---|---7-------------------------------|
|--7--|--5--|--7---|---5-------------------------------|
|--5--|-----|--5---|-----------------------------------|

tumambay...
|----|----|-----|----|----|-----|----------------------------|
|----|----|-----|----|----|-----|----------------------------|
|-4--|--6-|--7--|--4-|-6--|--7--|---9------------------------|
|-4--|--6-|--7--|--4-|-6--|--7--|---9------------------------|
|-2--|--4-|--5--|--2-|-4--|--5--|---7------------------------|
|----|----|-----|----|----|-----|----------------------------|


Solo-
1.
GtrI & II
|---------------------------------------------------|
|---------------------------------------------------|
|---------------------------------------------------|
|-3-3--5-5--7-7--9-9--------------------------------|
|-3-3--5-5--7-7--9-9--------------------------------|
|-1-1--3-3--5-5--7-7--------------------------------|
2.
GtrI do intro

GtrII
|--------------------------------|-------------8------|
|--------------------------------|--8-5--8--10---10~/-|
|---------5-7/--8/7p5-7--8p7-5---|--7----9------------|
|-----5-7----------------------7-|--------------------|
|---7----------------------------|--------------------|
|-5------------------------------|--------------------|


|----------------------------------------|-8/10-8----------------|
|-------5-8-5--10-8--5-------------------|--------10-8---8-10~---|
|-5-7-8---------------7-5----------5-7~/-|-------------9---------|
|-------------------------7-5--5h7-------|-----------------------|
|----------------------------------------|-----------------------|
|----------------------------------------|-----------------------|
verse

cHORUS2GtrI & II
A cup in hand....
|--5--|--x--|--5---|---x-------------------------------|
|--5--|--7--|--5---|---7-------------------------------|
|--6--|--7--|--6---|---7-------------------------------|2x
|--7--|--7--|--7---|---7-------------------------------|
|--7--|--5--|--7---|---5-------------------------------|
|--5--|-----|--5---|-----------------------------------|

tumambay...     may..           one moment..one nescafe   
|----|----|-----|----|----|-----|---------------5------------|
|----|----|-----|----|----|-----|---------------5------------|
|-4--|--6-|--7--|--4-|-6--|--7--|---9-----------6------------|
|-4--|--6-|--7--|--4-|-6--|--7--|---9-----------7 -----------|
|-2--|--4-|--5--|--2-|-4--|--5--|---7-----------7------------|
|----|----|-----|----|----|-----|---------------5------------|
Tap to rate this tab
# A B C D E F G H I J K L M N O P Q R S T U V W X Y Z