Song name
# A B C D E F G H I J K L M N O P Q R S T U V W X Y Z

Parquet Courts - Borrowed Time tab

Parquet Courts - Borrowed Time
From the album "Light Up Gold" (What's Your Rupture? 2012/2013).

Tabbed by Isaac Murguia, July 17, 2013.
YouTube: Goadiroth

INTRO CHORDS:
e|-----------------------|
B|-----------------------|
G|-----------------------|
D|--5----5----3----10----|
A|--5----5----3----10----|
E|--3----3----1----8-----| [x2]

VERSE LEAD: [x2]
e|--------------------------------------|
B|--------------------------------------|
G|--------------------------------------|
D|-9-9-99-89-99-99-89-99-99-89-99-99987-|
A|--------------------------------------|
E|--------------------------------------|

e|-----------------------------------------------------|
B|-----------------------------------------------------|
G|-----------------------------------------------------|
D|-7-77-67-77-777-10--10--10-10--9-10--10-10--10-10-10-|
A|-----------------------------------------------------|
E|-----------------------------------------------------|

CHORUS LEAD:
e|--------------------------------|
B|--------------------------------|
G|--------7-9999-7----------------|
D|-7-7-10----------10--9-999-10-9-|
A|--------------------------------|
E|--------------------------------| [x3]

e|---------------|
B|---------------|
G|--------7-9999-|
D|-7-7-10--------|
A|---------------|
E|---------------|

Repeat from beginning.

SOLO:
e|-------------|----------------|
B|-------------|----------------|
G|-9--5--9--5--|-7-5-7--5--7--5-|
D|-------------|----------------|
A|-------------|----------------|
E|-------------|----------------|

e|-----------------|----------------|
B|-----------------|----------------|
G|-7-5-9--5--9--5--|-7-5-7--5--7--5-|
D|-----------------|----------------|
A|-----------------|----------------|
E|-----------------|----------------|

Repeat CHORUS LEAD

End. Please rate!
Tap to rate this tab
# A B C D E F G H I J K L M N O P Q R S T U V W X Y Z