Song name
# A B C D E F G H I J K L M N O P Q R S T U V W X Y Z

Parquet Courts - Yonder Is Closer To The Heart tab

YONDER IS CLOSER TO THE HEART - Parquet Courts-
---------------------------------------------------------------- 
Tabbed by:      n8cee Email: nbcline81tabs@gmail.com 
Tuning: Standard
    Em     A    G5
e|---7-----5---------------------------------------------------------------|
B|---8-----5---------------------------------------------------------------|
G|---9-----6----12---------------------------------------------------------|
D|---9-----7----12---------------------------------------------------------|
A|---7-----7----10---------------------------------------------------------|
E|---x-----5---------------------------------------------------------------|

Em                                      A                                                       
Pocket contents: Rizla pack, spare change, receipts in wads.

Em                                     A
Stacked in camps across my desk, each day another pile.
Em                                      A
Time was measured in balls of lent, laundry claim tags and number of cents
Em                                      A
It takes to drown your brain into a just-dowsed former fire.

Em A Em A Em A

Em                                    A
Coffee breaks and lamb's tail shakes aren't arbitrary marks.
Paycheck stubs, good sex and drugs can fade away distractions of the
Mantras of "keep going" that are lodged into my thoughts.
They replay on days when yonder is closer to the heart.

CHORUS RIFF X2
This thickness is just enough to wade through. [x2]

Pocket contents: Rizla pack, spare change, receipts in wads.
Stacked in camps across my desk, each day another pile.
Time was measured in balls of lent, laundry claim tags and number of cents
It takes to drown your brain into a just-dowsed former fire.

CHORUS RIFF X4
This thickness is just enough to wade through. [x4]

BRIDGE
G5 Em G5 Em G5 Em G5 Em

Em                                  A
Coffee breaks and lamb's tail shakes aren't arbitrary marks.
Paycheck stubs, good sex and drugs can fade away distractions of the
Mantras of "keep going" that are lodged into my thoughts.
They replay on days when yonder is closer to the heart.

CHORUS RIFF X4
This thickness is just enough to wade through. [x4]

CHORUS RIFF
e|---------------------------------------------------------------|
B|---------------------------------------------------------------|
G|--------------------12-12-12--9-9-9-9--9-9-9-9-----------------|
D|-----------------7--12-12-12--9-9-9-9--9-9-9-9-----------------|
A|-9-7---------7-9----10-10-10--7-7-7-7--7-7-7-7-----------------|
E|-----10-9-10---------------------------------------------------|
Tap to rate this tab
# A B C D E F G H I J K L M N O P Q R S T U V W X Y Z