Song name
# A B C D E F G H I J K L M N O P Q R S T U V W X Y Z

Parquet Courts - Stoned And Starving tab

-----------------------------------------------------------------
Stoned and Starving - Parquet Courts
-----------------------------------------------------------------
Tabbed by: Igor
Email:  igor1977@gmail.com
Tuning: CGDGBe !!!

Important. This song has strange tuning. Tune sixth string 4 steps down to C. Tune fifth 
string 2 steps down to G

e|---------------------------------------------------------------|
B|---------------------------------------------------------------|
G|---------------------------------------------------------------|
D|-----------------8-----8-----8---------------------------------|
G|----10-10-9------5-----5-----5---------------------------------|
C|-0-----------0------0-----0------------------------------------|   3x

e|---x---x---x--x--x---------------------------------------------|
B|--10--10--10-10-10---------------------------------------------|
G|--12--12--12-12-12---------------------------------------------|
D|--12--12--12-12-12-----------------------8-----8-----8---------|
G|--10--10--10-12-12----------10-10-9------5-----5-----5---------|
C|--10--10--10-10-10-------0-----------0------0-----0------------|   1x and repeat

| /  slide up
| \  slide down
| h  hammer-on
| p  pull-off
| ~  vibrato
| +  harmonic
| x  Mute note
Tap to rate this tab
# A B C D E F G H I J K L M N O P Q R S T U V W X Y Z