Song name
# A B C D E F G H I J K L M N O P Q R S T U V W X Y Z

Parquet Courts - Yr No Stoner tab

Tabbed by: Federico Ribeiro

Tuning: Standard

Main Riff

e|---------------------|
B|---------------------|
G|---------------------|
D|-----------------9-7-|
A|------------7-10-----|
E|-10-10-10-8----------|

e|---------------------|
B|---------------------|
G|---------------------|
D|-8--------10---------|
A|-8--------10---------|
E|-6--------8----------|


Solo

e|-----------------------------------------------------------------------------------------------|
B|-----------------------------------------------------------------------------------------------|
G|-14--14--14--14-12--10---------------------------7-9-------7-9-------7-9--11--11-11-16-16-15~--|
D|------------------------12--10-12-10-12-----7-10------7-10------7-10---------------------------|
A|-----------------------------------------------------------------------------------------------|
E|-----------------------------------------------------------------------------------------------|
Tap to rate this tab
 
# A B C D E F G H I J K L M N O P Q R S T U V W X Y Z