Song name
# A B C D E F G H I J K L M N O P Q R S T U V W X Y Z

Parquet Courts - Master Of My Craft tab

Tabbed by: Fede Ribeiro

Tuning: guitar 1 (standard), guitar 2 (open G tuning -DGDGBD-)


Guitar 1


Intro

e|-1--2--3--4---|
B|-1--2--3--4---|
G|-2--3--4--5---|
D|-3--4--5--6---|
A|-3--4--5--6---|
E|-1--2--3--4---|

e|---|
B|---|
G|-7-| strum this chord as much as necessary
D|-4-|
A|-5-|
E|---|

Verse 1

e|------5---------|
B|------5---------|
G|-7----6----7----| strum these chords as much as necessary
D|-4----7----4----|
A|-5----7----5----|
E|------5---------|

Chorus 1

e|-----------------------------------------------------------------|
B|-----------------------------------------------------------------|
G|-5-5-5-5-4-4-4-4-3-3-3-3-2-2-2-2-3-3-3-3-4-4-4-4-5-5-5-5-5-5-5-5-|
D|-----------------------------------------------------------------|
A|-----------------------------------------------------------------|
E|-----------------------------------------------------------------|

e|---3---3-x--3-3-3-6-6---3---3-x--3-3-3-6-6--|
B|---3---3-x--3-3-3-6-6---3---3-x--3-3-3-6-6--|
G|---4---4-x--4-4-4-7-7---4---4-x--4-4-4-7-7--|
D|---5---5-x--5-5-5-8-8---5---5-x--5-5-5-8-8--|
A|-5-5-----x----5-5-8-8-5-5-----x----5-5-8-8--|
E|-3-3-----x----3-3-6-6-3-3-----x----3-3-6-6--|

e|-----------------------------------------------------------------|
B|-----------------------------------------------------------------|
G|-5-5-5-5-4-4-4-4-3-3-3-3-2-2-2-2-3-3-3-3-4-4-4-4-5-5-5-5-5-5-5-5-|
D|-----------------------------------------------------------------|
A|-----------------------------------------------------------------|
E|-----------------------------------------------------------------|

e|---3---3-x--3-3-3-6-6---3---3-x--3-3-3-6-6--|
B|---3---3-x--3-3-3-6-6---3---3-x--3-3-3-6-6--|
G|---4---4-x--4-4-4-7-7---4---4-x--4-4-4-7-7--|
D|---5---5-x--5-5-5-8-8---5---5-x--5-5-5-8-8--|
A|-5-5-----x----5-5-8-8-5-5-----x----5-5-8-8--|
E|-3-3-----x----3-3-6-6-3-3-----x----3-3-6-6--|

e|-5-|
B|-5-|
G|-6-| strum this chord as much as necessary
D|-7-|
A|-7-|
E|-5-|

e|---|
B|---|
G|-7-| strum this chord as much as necessary
D|-4-|
A|-5-|
E|---|

Verse 2

e|------5---------|
B|------5---------|
G|-7----6----7----| strum these chords as much as necessary
D|-4----7----4----|
A|-5----7----5----|
E|------5---------|


Chorus 2

e|-----------------------------------------------------------------|
B|-----------------------------------------------------------------|
G|-5-5-5-5-4-4-4-4-3-3-3-3-2-2-2-2-3-3-3-3-4-4-4-4-5-5-5-5-5-5-5-5-|
D|-----------------------------------------------------------------|
A|-----------------------------------------------------------------|
E|-----------------------------------------------------------------|

e|---3---3-x--3-3-3-6-6---3---3-x--3-3-3-6-6--|
B|---3---3-x--3-3-3-6-6---3---3-x--3-3-3-6-6--|
G|---4---4-x--4-4-4-7-7---4---4-x--4-4-4-7-7--|
D|---5---5-x--5-5-5-8-8---5---5-x--5-5-5-8-8--|
A|-5-5-----x----5-5-8-8-5-5-----x----5-5-8-8--|
E|-3-3-----x----3-3-6-6-3-3-----x----3-3-6-6--|

e|-----------------------------------------------------------------|
B|-----------------------------------------------------------------|
G|-5-5-5-5-4-4-4-4-3-3-3-3-2-2-2-2-3-3-3-3-4-4-4-4-5-5-5-5-5-5-5-5-|
D|-----------------------------------------------------------------|
A|-----------------------------------------------------------------|
E|-----------------------------------------------------------------|

e|---3---3-x--3-3-3-6-6---3---3-x--3-3-3-6-6--|
B|---3---3-x--3-3-3-6-6---3---3-x--3-3-3-6-6--|
G|---4---4-x--4-4-4-7-7---4---4-x--4-4-4-7-7--|
D|---5---5-x--5-5-5-8-8---5---5-x--5-5-5-8-8--|
A|-5-5-----x----5-5-8-8-5-5-----x----5-5-8-8--|
E|-3-3-----x----3-3-6-6-3-3-----x----3-3-6-6--|

e|-5-|
B|-5-|
G|-6-| strum this chord as much as necessary
D|-7-|
A|-7-|
E|-5-|

e|-6-|
B|-6-|
G|-7-| strum this chord as much as necessary
D|-8-|
A|-8-|
E|-6-|

Bridge (note: this is just the same chords from the second part of the chorus but with a 
variation of the picking)

e|---3---3-x--3-x-----6---3---3-x--3-x-----6--|
B|---3---3-x--3-3-----6---3---3-x--3-3-----6--|
G|---4---4-x--4-4-x---7---4---4-x--4-4-x---7--| x4
D|---x---5-x--5-5-x---8---x---5-x--5-5-x---8--|
A|-5-------x------5-8---5-------x------5-8----|
E|-3-------3------3-6---3-------3------3-6----|

Solo

e|------------------------------------------------------------------------------------------------------------|
B|------------------------------------------------------------------------------------------------------------|
G|-10-9-7-5-7-5-3-----------3---3----------3-------------------/1210-12-12-10-12--10---/1210-12-12-10-12--10--|
D|-----------------5---3--5---5----5---3-5----5--3-5-3--5-----------------------------------------------------|
A|------------------------------------------------------------------------------------------------------------|
E|------------------------------------------------------------------------------------------------------------|

e|---------------------------------------------------------------------------|
B|---------------------------------------------------------------------------|
G|-/1210-12-12-10-12--10--12-12-10-12--10--12-10-12-15-12-10-12-15--12-10-12-|
D|---------------------------------------------------------------------------|
A|---------------------------------------------------------------------------|
E|---------------------------------------------------------------------------|

e|------------------------------------------------------------------------------------------------------------|
B|------------------------------------------------------------------------------------------------------------|
G|-10-12-15-12-15-12--10-12-10-12-15-12-15-12--10-12-10-12-15-12-15-12--15-12--15-17-15-17-15-17-15-17-15-17\-|
D|------------------------------------------------------------------------------------------------------------|
A|------------------------------------------------------------------------------------------------------------|
E|------------------------------------------------------------------------------------------------------------|

e|--------------------13-12\--------------------13-12\--------------------13-12\-|
B|----12---12--13-12------------12---12--13-12------------12---12--13-12---------|
G|-/12---12--12-----12-------/12---12--12-----12-------/12---12--12-----12-------|
D|-------------------------------------------------------------------------------|
A|-------------------------------------------------------------------------------|
E|-------------------------------------------------------------------------------|

e|-/1313131313131313131313131313131313131313131313131315151515151515151515151515151515151515151515151515151515-|
B|-------------------------------------------------------------------------------------------------------------|
G|-------------------------------------------------------------------------------------------------------------|
D|-------------------------------------------------------------------------------------------------------------|
A|-------------------------------------------------------------------------------------------------------------|
E|-------------------------------------------------------------------------------------------------------------|



Guitar 2


Intro

d|--------------|
B|-6--7--8--9---|
G|-5--6--7--8---|
D|-7--8--9--10--|
G|--------------|
D|--------------|

d|---|
B|---|
G|---| strum this chord as much as necessary
D|-0-|
G|-2-|
D|-0-|


Verse 1

d|-------------------------------------------------------|
B|-------------------------------------------------------|
G|----------------4-4-2-4--2-----------------4-4-2-4--2--|
D|-------------------------------------------------------|
G|-2--2-2-2-2-2-2-------------2--2-2-2-2-2-2-------------|
D|-0--0-0-0-0-0-0-------------0--0-0-0-0-0-0-------------|

d|----------------------------------------------------------|
B|----------------------------------------------------------|
G|--------5--5-5-4-4--0--0-0-0---------5--5-5-4-4--0--0-0-0-|
D|----------------------------------------------------------|
G|-5--5-5-----------------------5--5-5----------------------|
D|----------------------------------------------------------|

d|-------------------------------------------------------|
B|-------------------------------------------------------|
G|----------------4-4-2-4--2-----------------9-9-7-9--7--|
D|-------------------------------------------------------|
G|-2--2-2-2-2-2-2-------------7--7-7-7-7-7-7-------------|
D|-0--0-0-0-0-0-0-------------0--0-0-0-0-0-0-------------|

Chorus 1

d|-----------------------------------------------------------------------------|
B|-----------------------------------------------------------------------------|
G|-----------------------------------------------------------------------------|
D|-10-10-10-10-9-9-9-9-8-8-8-8-7-7-7-7-8-8-8-8-9-9-9-9-10-10-10-10-10-10-10-10-|
G|-----------------------------------------------------------------------------|
D|-----------------------------------------------------------------------------|

d|-0-0---0-0--0-0-0-----0-0---0-0--0-0-0------|
B|-0-0---0-0--0-0-0-3-3-0-0---0-0--0-0-0-3-3--|
G|-0-0---0-0--0-0-0-3-3-0-0---0-0--0-0-0-3-3--|
D|-0-0---0-0--0-0-0-3-3-0-0---0-0--0-0-0-3-3--|
G|-0-0---0-0--0-0-0-3-3-0-0---0-0--0-0-0-3-3--|
D|--------------------------------------------|

d|-----------------------------------------------------------------------------|
B|-----------------------------------------------------------------------------|
G|-----------------------------------------------------------------------------|
D|-10-10-10-10-9-9-9-9-8-8-8-8-7-7-7-7-8-8-8-8-9-9-9-9-10-10-10-10-10-10-10-10-|
G|-----------------------------------------------------------------------------|
D|-----------------------------------------------------------------------------|

d|-0-0---0-0--0-0-0-----0-0---0-0--0-0-0------|
B|-0-0---0-0--0-0-0-3-3-0-0---0-0--0-0-0-3-3--|
G|-0-0---0-0--0-0-0-3-3-0-0---0-0--0-0-0-3-3--|
D|-0-0---0-0--0-0-0-3-3-0-0---0-0--0-0-0-3-3--|
G|-0-0---0-0--0-0-0-3-3-0-0---0-0--0-0-0-3-3--|
D|--------------------------------------------|

d|---|
B|-2-|
G|-2-| strum this chord as much as necessary
D|-2-|
G|-2-|
D|---|

d|-------------------------------------------------------|
B|-------------------------------------------------------|
G|----------------4-4-2-4--2-----------------9-9-7-9--7--|
D|-------------------------------------------------------|
G|-2--2-2-2-2-2-2-------------7--7-7-7-7-7-7-------------|
D|-0--0-0-0-0-0-0-------------0--0-0-0-0-0-0-------------|

Verse 2

d|-------------------------------------------------------|
B|-------------------------------------------------------|
G|----------------4-4-2-4--2-----------------4-4-2-4--2--|
D|-------------------------------------------------------|
G|-2--2-2-2-2-2-2-------------2--2-2-2-2-2-2-------------|
D|-0--0-0-0-0-0-0-------------0--0-0-0-0-0-0-------------|

d|----------------------------------------------------------|
B|----------------------------------------------------------|
G|--------5--5-5-4-4--0--0-0-0---------5--5-5-4-4--0--0-0-0-|
D|----------------------------------------------------------|
G|-5--5-5-----------------------5--5-5----------------------|
D|----------------------------------------------------------|

d|-------------------------------------------------------|
B|-------------------------------------------------------|
G|----------------4-4-2-4--2-----------------9-9-7-9--7--|
D|-------------------------------------------------------|
G|-2--2-2-2-2-2-2-------------7--7-7-7-7-7-7-------------|
D|-0--0-0-0-0-0-0-------------0--0-0-0-0-0-0-------------|

Chorus 2

d|-----------------------------------------------------------------------------|
B|-----------------------------------------------------------------------------|
G|-----------------------------------------------------------------------------|
D|-10-10-10-10-9-9-9-9-8-8-8-8-7-7-7-7-8-8-8-8-9-9-9-9-10-10-10-10-10-10-10-10-|
G|-----------------------------------------------------------------------------|
D|-----------------------------------------------------------------------------|

d|-0-0---0-0--0-0-0-----0-0---0-0--0-0-0------|
B|-0-0---0-0--0-0-0-3-3-0-0---0-0--0-0-0-3-3--|
G|-0-0---0-0--0-0-0-3-3-0-0---0-0--0-0-0-3-3--|
D|-0-0---0-0--0-0-0-3-3-0-0---0-0--0-0-0-3-3--|
G|-0-0---0-0--0-0-0-3-3-0-0---0-0--0-0-0-3-3--|
D|--------------------------------------------|

d|-----------------------------------------------------------------------------|
B|-----------------------------------------------------------------------------|
G|-----------------------------------------------------------------------------|
D|-10-10-10-10-9-9-9-9-8-8-8-8-7-7-7-7-8-8-8-8-9-9-9-9-10-10-10-10-10-10-10-10-|
G|-----------------------------------------------------------------------------|
D|-----------------------------------------------------------------------------|

d|-0-0---0-0--0-0-0-----0-0---0-0--0-0-0------|
B|-0-0---0-0--0-0-0-3-3-0-0---0-0--0-0-0-3-3--|
G|-0-0---0-0--0-0-0-3-3-0-0---0-0--0-0-0-3-3--|
D|-0-0---0-0--0-0-0-3-3-0-0---0-0--0-0-0-3-3--|
G|-0-0---0-0--0-0-0-3-3-0-0---0-0--0-0-0-3-3--|
D|--------------------------------------------|

d|---|
B|-2-|
G|-2-| strum this chord as much as necessary
D|-2-|
G|-2-|
D|---|

d|---|
B|-3-|
G|-3-| strum this chord as much as necessary
D|-3-|
G|-3-|
D|---|


Bridge (note: this is just the same chords from the second part of the chorus but with a 
variation of the picking)

d|--------------------------------------------|
B|---x---0-x--0-x-----3-------0-x--x-x--------|
G|-x-x---0-x--0-0-x-3-3-x-x---0-x--0-0-x-3-3--| x4
D|-0-x---x-x--0-0-x-3-3-0-x---x-x--0-0-x-3-3--|
G|-0-------x------x-3---0-------x------x-3-3--|
D|--------------------------------------------|

Solo

d|-0-0---0-0--0-0-0-----0-0---0-0--0-0-0------|
B|-0-0---0-0--0-0-0-3-3-0-0---0-0--0-0-0-3-3--|
G|-0-0---0-0--0-0-0-3-3-0-0---0-0--0-0-0-3-3--| as many times as necessary
D|-0-0---0-0--0-0-0-3-3-0-0---0-0--0-0-0-3-3--|
G|-0-0---0-0--0-0-0-3-3-0-0---0-0--0-0-0-3-3--|
D|--------------------------------------------|

d|-0-0-0-0-0-0-0-0-0-0-0-0-0-0-0-0--|
B|-0-0-0-0-0-0-0-0-0-0-0-0-0-0-0-0--|
G|-0-0-0-0-0-0-0-0-0-0-0-0-0-0-0-0--|
D|-0-0-0-0-0-0-0-0-0-0-0-0-0-0-0-0--|
G|-0-0-0-0-0-0-0-0-0-0-0-0-0-0-0-0--|
D|----------------------------------|


************************************

| /   slide up
| \   slide down
| h   hammer-on
| p   pull-off
| ~   vibrato
| +   harmonic
| x   Mute note
| b   Bend
| pb  Pre-bend
| br  Bend release
| pbr Pre-bend release
| brb Bend release bend

************************************
Tap to rate this tab
# A B C D E F G H I J K L M N O P Q R S T U V W X Y Z