Song name
# A B C D E F G H I J K L M N O P Q R S T U V W X Y Z

Parry Gripp - The Girl At The Video Game Store tab

The Girl @ The Video Game Store-Parry Gripp
Tuning: Standard
                                  Tabbed By: Jonathan A. Hosseini


1.2,3

----------------------|
-------------0--------|    let ring.
--------------0-------|
---5---4----2--2------|  2x
----5---4--2----------|
--3---2---0-----------|

the end part goes like this

----------------------|
----------------------|
----------------------|
---2-2----------------|
--2---2---------------|
-0-----0--------------|

verse 1

-------------------------------|
-----------0-2------0----------|
--------------3------0-----4---|
---5-5---------4---2--2---5-5--| 4x  let ring.
--5---5---4-------2------5---5-|
-3-----3-2-------0------3------|

this variates when he plays
it so just pluck at the chord form

2nd intro
------------------------------------|
------------------------------------|
------------------------------------|
---------------(0)(0)---------------|   2x
---------------(0)(0)---------------|
-3--2--0----0-0-3--2-0--------0-0-0-|
                              * * *
verse 2
-------------------------------------------------|
-------------------------------------------------|
-------------------------------------------------|
-------------------------------------------------| 4x
-5-5-5-5-5-5-9-9-9-9-9-9-2-2-2-2-2-2-7-7-7-7-7-7-|
-3-3-3-3-3-3-7-7-7-7-7-7-0-0-0-0-0-0-5-5-5-5-5-5-|
 * * * * * * * * * * * * * * * * * * * * * * * *

-------------------------------------------------|
-------------------------------------------------|
-------------------------------------------------|
-------------------------------------------------|
-5-5-5-5-5-5-5-5-5-5-5---------------------------|
-3-3-3-3-3-3-3-3-3-3-3---------------------------|
 * * * * * * * * * * *


chorus
-------------------------------------------------|
-------------------------------------------------|
-------------------------5-5-5-5-5-5-7-7-7-7-7-7-|
-5-5-5-5-5-5-2-2-2-2-2-2-5-5-5-5-5-5-7-7-7-7-7-7-| 4x
-5-5-5-5-5-5-2-2-2-2-2-2-3-3-3-3-3-3-5-5-5-5-5-5-|
-3-3-3-3-3-3-0-0-0-0-0-0-------------------------|

kewl synth solo
-------------------------------------------------|
-------------------------------------------------|
-------------------------------------------------|
-------------------------------------------------|
-5-5-5-5-5-5-9-9-9-9-9-9-2-2-2-2-2-2-7-7-7-7-7-7-|
-3-3-3-3-3-3-7-7-7-7-7-7-0-0-0-0-0-0-5-5-5-5-5-5-|
 * * * * * * * * * * * * * * * * * * * * * * * *

------------------------------------------------|
------------------------------------------------|
------------------------------------------------|
------------------------------------------------|  break
--------------------------------------------x-x-|
--------------------------------------------x-x-|

chirous
-------------------------------------------------|
-------------------------------------------------|
-------------------------5-5-5-5-5-5-7-7-7-7-7-7-|
-5-5-5-5-5-5-2-2-2-2-2-2-5-5-5-5-5-5-7-7-7-7-7-7-| 4x
-5-5-5-5-5-5-2-2-2-2-2-2-3-3-3-3-3-3-5-5-5-5-5-5-|
-3-3-3-3-3-3-0-0-0-0-0-0-------------------------|

-------------------------------------------------|
-------------------------------------------------|
-7-7-7-7-7-7-7-7-7-7-7-7-7-7-7-7-7-7-7-7-7-7-7-7-|
-7-7-7-7-7-7-7-7-7-7-7-7-7-7-7-7-7-7-7-7-7-7-7-7-|
-5-5-5-5-5-5-5-5-5-5-5-5-5-5-5-5-5-5-5-5-5-5-5-5-|
-------------------------------------------------|

-------------------------------------------------|
-------------------------------------------------|
-----7-------------------------------------------|
-----7-------------------------------------------|
-----5-------------------------------------------|
-------------------------------------------------|

this next part is supposed to be the synth part.

-------------------------------------------------|
-------------------------------------------------|
-------------------------------------------------|
---5--5--4--4--9--9--7--7------------------------| 4x
--5--5--4--4--9--9--7--7-------------------------|
-3--3--2--2--7--7--5--5--------------------------|


---
---
---
--- gradually let go.
-5-
-3-
 *

------------------------------------------------|
------------------------------------------------|
------------------------------------------------|
-5-5-5-5-5-5-4-4-4-2-2-2------------------------|
-5-5-5-5-5-5-4-4-4-2-2-2------------------------|
-3-3-3-3-3-3-2-2-2-0-0-0------------------------|

------------------------------------------------|
------------------------------------------------|
------------------------------------------------|
-5--5-4--4-2--2-2-2-2---------------------------|
-5--5-4--4-2--2-2-2-2---------------------------|
-3--3-2--2-0--0-0-0-0---------------------------|

------------------------------------------------|
------------------------------------------------|
------------------------------------------------|
-5----------------------------------------------|
-5----------------------------------------------|
-3----------------------------------------------|

*=palm mute
()=hit lightly/ ghost note
Tap to rate this tab
# A B C D E F G H I J K L M N O P Q R S T U V W X Y Z