Song name
# A B C D E F G H I J K L M N O P Q R S T U V W X Y Z

Parry Gripp - Do You Like Waffles tab

Do You Like Waffles - Parry Gripp (Guitar Tab)

|---------------------------------|
|---------------------------------|
|-----9-9-9-9-7-7-7-7-------------|
|-----9-9-9-9-7-7-7-7-------------|
|-----7-7-7-7-5-5-5-5-------------|
|---------------------------------|

"Do Do Do Can't wait to get a mouthful!"

|---------------------------------|
|---------------------------------|
|---------------------------------|
|-----------4--------7------------| x3
|---------5---7777-9--------------|
|-----5-5-------------------------|

"WAFFLES!! *instrumental* WAFFLES!"


After last "Do Do Do Can't wait to get a mouthful!" end with:

|---------------------------------|
|---------------------------------|
|---------------------------------|
|-----7---------------------------|
|-----7---------------------------|
|-----5---------------------------|
Tap to rate this tab
# A B C D E F G H I J K L M N O P Q R S T U V W X Y Z