Song name
# A B C D E F G H I J K L M N O P Q R S T U V W X Y Z

Parry Gripp - Boogie Boogie Hedgehog tab

Title: Boogie Boogie Hedgehog
Artist: Parry Gripp
Album: Boogie Boogie Hedgehog: Song of the week for October 07, 2008
Year: 2008
Tabbed by: MetallAndy

E|-------------------|
B|-------------------|
G|-------------------|
D|-------------------|
A|--7-7--4-4--5-6----|
E|--5-5--2-2--3-4----|

E|-------------------------------------------|
B|--10-10---------10-------------------------|
G|--------12-9-12----------------------------|
D|--------------------9-9------9-------------|
A|-----------------------10-12---10-12-------|
E|-------------------------------------12----|
Tap to rate this tab
# A B C D E F G H I J K L M N O P Q R S T U V W X Y Z