Song name
# A B C D E F G H I J K L M N O P Q R S T U V W X Y Z

Parry Gripp - Nom Nom Nom Nom Nom Nom Nom tab

This is my first tab. It's a pretty easy song. There are basically 2 sections you repeat 
change a little. Here's the first one. Enjoy =)

----------0----------------------------------------------------|
3-3-3-0-3---3---0-0-0---0-1-0---------------0-------------0----|
----------------------2-------2-0-0-0---0-2-----2-2-2-0-2---2--|
--------------------------------------2------------------------|
---------------------------------------------------------------|
---------------------------------------------------------------|

Repeat

----------0----------------------------------------------------|
3-3-3-0-3---3---0-0-0---0-1-0---------------0-------------0----|
----------------------2-------2-0-0-0---0-2-----2-2-2-0-2---2--|
--------------------------------------2------------------------|
---------------------------------------------------------------|
---------------------------------------------------------------|

Then you just repeat it an octave up (these are all double digit numbers, not 2 
numbers)

---------------12------------------------------------------------------------------------------|
15-15-15-12-15----15---12-12-12----12-13-12----------------------12-------------------12-------|
--------------------------------14----------14-12-12-12----12-14-------14-14-14-12-14----14----|
--------------------------------------------------------14-------------------------------------|
-----------------------------------------------------------------------------------------------|
-----------------------------------------------------------------------------------------------|

Here's the next section, and again, they are double digit numbers when they are really 
together.

----10-10-----10-10-----10-10-----10-10-----10-10------10-10------10-10-----10-10-|
8-8-------8-8---------------------------8-8--------8-8----------------------------|
--------------------7-7-------7-7-----------------------------7-7-------7-7-------|
----------------------------------------------------------------------------------|
----------------------------------------------------------------------------------|
----------------------------------------------------------------------------------|


7-7-10-10-7-7-10-10-------10-10-------10-10-|
8-8-------8-8-------10-10-------10-10-------|
---------------------7--7--------7--7-------|
--------------------------------------------|
--------------------------------------------|
--------------------------------------------|


Thn you repeat the first part 3 more times.
Tap to rate this tab
 
# A B C D E F G H I J K L M N O P Q R S T U V W X Y Z