Song name
# A B C D E F G H I J K L M N O P Q R S T U V W X Y Z

Parry Gripp - Do You Like Waffles tab

Do you like waffles
Parry Gripp
No Capo
Standard Tuning
My first tab... sorry about the layout, bit new to this stuff xD

E-------------|------------------|
B-------------|------------------|
G-------------|------------------|
D-------------|------------------|
A-0-0-4-7-----|-5-5-4-2----------|
E-------------|------------------|
Do you like waffles? Yeah we like waffles

E-------------|------------------|
B-------------|------------------|
G-------------|------------------|
D-------------|------------------|
A-0-0-4-7-----|-9-7-9-7----------|
E-------------|------------------|
Do you like pancakes? Yeah we like pancakes!

E-------------|------------------|
B-------------|------------------|
G-------------|------------------|
D-------------|------------------|
A-0-0-4-7-----|-5-5-4-2----------|
E-------------|------------------|
Do you like french toast? yeah we like french toast!

E-------------|------------------|
B-------------|------------------|
G-------------|------------------|
D-------------|------------------|
A-7-7-7-7-----|-9-7-9-7----------|
E-------------|------------------|
Do do do do          cant wait to get a mouthful!

E-------------|-------------------------------------------------------------|
B-------------|-------------------------------------------------------------|
G-------------|-------------------------------------------------------------|
D-------------|-------------------------------------------------------------|
A-1212--1212--|-1212----12-7-7-7-7-7-9-7-9-7--(optional finish on 12)-------|
E-------------|-------------------------------------------------------------|
WAFFLES! WAFFLES! WAFFLES! WAFFLE, do do do do cant wait to get a mouthful!
Tap to rate this tab
 
# A B C D E F G H I J K L M N O P Q R S T U V W X Y Z