Song name
# A B C D E F G H I J K L M N O P Q R S T U V W X Y Z

Parsley Project - You Know tab

Song: You Know
Artist: Parsley Project
Contributed by: Robert Evraets (the guitarist for parsley project) MxPxForAlways69
This is one of our first songs we ever made.  Check out our website at:
http://parsleyproject.iwarp.com
This is a fairly easy song because it was our first.

You Know
1ST VERSE (W/ FLANGE PEDAL AND NO DISTORTION)
e|---------------------------------------------------------------------|
B|---------------------------------------------------------------------|
G|----0-------0-------0------0----------0-------0-------0-------0------|
D|---0-0-----0-0-----0-0----0-0---7----0-0-----0-0-----0-0-----0-0-----|
A|--9-------7-------5------5------7---9-------7-------5-------5--------|
E|-7----7--5----5--3----3-3----3--5--7----7--5----5--3-----3-3-----3--5|

e|---------------------------------------------------------------------|
B|-----------------------(W/ DISTORTION)-------------------------------|
G|----0------0------0----00000-----------------------------------------|
D|---2-2----3-3----2-2---33333-----------------------------------------|
A|--2---2--3---3--2---2--33333-----------------------------------------|
E|-0------0------0-------00000-----------------------------------------|

e|---------------------------------------------------------------------|
B|---------------------------------------------------------------------|
G|------------------------------------------------5-7------------------|
D|-99999999-77777777-55555555-5555-5-7-999-5-7-77-5-7--999-54----------|
A|-99999999-77777777-55555555-5555-5-7-999-5-7-77-3-5--999-54----------|
E|-77777777-55555555-33333333-3333-3-5-777-3-5-55------777-32----------|

(Repeat 1st verse for the 2nd verse and again for the 3rd verse)

(Then do the chorus again)

(Then guitar plays chorus by himself)

(Then bass and drums have a solo)

(Then the play chorus 4 more times until the end.)
Tap to rate this tab
# A B C D E F G H I J K L M N O P Q R S T U V W X Y Z