Song name
# A B C D E F G H I J K L M N O P Q R S T U V W X Y Z

Partibrejkers - Zurim tab

partibrejkersi
zurim
gramzivost i pohlepa
tabed by scepa


song goes like this
|-----------------------------------------|
|-----------------------------------------|
|-----2-0-----------------2-0-------------|
|-2-2-----2-0---------2-2-----2-0---------|
|-0-0---------3-0-----0-0---------3-0-----|
|-----------------0/3-----------------0/3-|


|-5---5---5---5-5-|
|-5---5---5---5-5-|
|-6---6---6---6-6-|
|-7---7---7---7-7-|
|-7---7---7---7-7-|
|-5---5---5---5-5-|
zurim da je najem 
zurim ne znam gde...


|-----------------|
|-----------------|
|-------------4/9-|
|-2-2-2-2-2-2-2/7-|
|-0-0-3-0-3-0-----|
|-----------------|
 jos   jednom


|---------------------|
|---------------------|
|---------------------|
|-2-2-----5-5-7-7---5-|
|-0-0-----3-3-5-5---3-|
|---------------------|
  bez nje sna nemam ja


|-------------------------------------------------|
|-------------------------------------------------|
|---------2-0---------------------2-0-------------|
|-2-2---------2-0---------2-2---------2-0---------|
|-0-0-------------3-0-----0-0-------------3-0-----|
|---------------------0/3---------------------0/3-|
bio sam lud               odbio sam ljubav...


ending
|-----------------------------|
|-----------------------------|
|-----------------------------|
|-2-2-4-4-2-2-4-4-2-2-4-2-2-2-|
|-0-0-0-0-0-0-0-0-0-0-0-0-0-0-|
|-----------------------------|

that's all folks:)


Tap to rate this tab
 
# A B C D E F G H I J K L M N O P Q R S T U V W X Y Z