Song name
# A B C D E F G H I J K L M N O P Q R S T U V W X Y Z

Partisans - Blind Ambition tab

-------------------------------------------------------------------------------
			     Blind Ambition - The Partisans
-------------------------------------------------------------------------------
hey guys didnt see a tab for this song on here so i decided to make one, i dont know the 
but i got pretty much the whole song
Tabbed by: Matt
Email: lotsabooya@hotmail.com

Tuning: Standard
Intro/verse
do this a few times palm muted..
e|---------------------------------------------------------------------------|
B|---------------------------------------------------------------------------|
G|---------------------------------------------------------------------------|
D|-----999-999-777-666-------------------------------------------------------|
A|-----777-666-555-444-------------------------------------------------------|
E|---------------------------------------------------------------------------|
then do this un muted twice im sure picksliding at the end of the second time.. 
which goes into the first fill
e|---------------------------------------------------------------------------|
B|---------------------------------------------------------------------------|
G|---------------------------------------------------------------------------|
D|---999--888--777--666------------------------------------------------------|
A|---777--666--555--444------------------------------------------------------|
E|---------------------------------------------------------------------------|
Fill
e|---------------------------------------------------------------------------|
B|---------------------------------------------------------------------------|
G|---------------2--4-3-2-0--------------------------------------------------|
D|--22-----------2-----------------------------------------------------------|
A|--22-------2---0-----------------------------------------------------------|
E|--00-3-0-3-----------------------------------------------------------------|
and thats as much as i know, very cool song once you get the hang of it
Tap to rate this tab
# A B C D E F G H I J K L M N O P Q R S T U V W X Y Z