Song name
# A B C D E F G H I J K L M N O P Q R S T U V W X Y Z

Partisans - Dont Blame Us tab

The Partisans - Donīt blame us

Pretty easy songs....But it seems to depend on the version, I have one, where it sounds 
as if it was one semi-tone higher, so just check it out!

Riff 1
e:----------------|
b:----------------|
g:7-7-7-7-5-7-7-7-|
d:7-7-7-7-5-7-7-7-|
a:5-5-5-5-3-5-5-5-|
e:----------------|

Riff 2
e:------------------|----------------|
b:------------------|----------------|
g:2--2--2--3--4--5--|7-7-7-7-5-7-7-7-|
d:2--2--2--3--4--5--|7-7-7-7-5-7-7-7-|
a:0--0--0--1--2--3--|5-5-5-5-3-5-5-5-|
e:------------------|----------------|

Riff 1 8x
Riff 2 2x
Riff 1 7x
Riff 2 2x
Break
Riff 1 8x
Riff 2 2x
Riff 1 1x
Tap to rate this tab
 
# A B C D E F G H I J K L M N O P Q R S T U V W X Y Z