Song name
# A B C D E F G H I J K L M N O P Q R S T U V W X Y Z

Pas Band - Romeo And Juliet tab

Song         : Romeo & Juliet
Artist       : Pas Band
Tabbed by    : yoos (yoosyoes.blogspot.com)


@solo
e|-------------------------|
B|-------------------------|
G|--4-------------4--------|
D|-----7--5---5h7---7-5-7--|
A|-------------------------|
E|-------------------------|

e|-----------------------------------------18-16----14-----11-----------|
B|--------11--------------11----------------------------------14-12-11--|
G|-----------11-----11h13----13-11-13---13-------13-----13--------------|
D|--11h13-------13------------------------------------------------------|
A|----------------------------------------------------------------------|
E|----------------------------------------------------------------------|

e|------------------------14-16-18-16-14-13--p11p9-11--|
B|-----------------------------------------------------|
G|--13-11-13/15-13-11-13-------------------------------|
D|-----------------------------------------------------|
A|-----------------------------------------------------|
E|-----------------------------------------------------|
Tap to rate this tab
 
# A B C D E F G H I J K L M N O P Q R S T U V W X Y Z