Song name
# A B C D E F G H I J K L M N O P Q R S T U V W X Y Z

Pascow - Too Doof Too Fuck tab

Pascow  Too doof to fuck


All the elements, my friends. Just listen to the song and find out where they 
belong. It's really easy.

Main Riff

e---2---0------2-----------------------------]
B-3---3---2--2---2---------------------------]
G--------------------------------------------]
D--------------------------------------------]
A--------------------------------------------]
E--------------------------------------------]


Chords
e--------------------------------------------]
B--------------------------------------------]
G--4-4-4-4-----------7-7-7-7-----------------]
D--4-4-4-4--5-5-5-5--7-7-7-7--7-7-7-7--------]
A--2-2-2-2--5-5-5-5--5-5-5-5--7-7-7-7--------]
E-----------3-3-3-3-----------5-5-5-5--------]


Bridge
e--2-2-2-2-3-3-3-3-2-2-2-2-------------------]
B--------------------------5-5-5-5-----------]
G--------------------------------------------]
D--------------------------------------------]
A--------------------------------------------]
E--------------------------------------------]
Tap to rate this tab
 
# A B C D E F G H I J K L M N O P Q R S T U V W X Y Z