Guitaretab - guitar tabs
Song name
# A B C D E F G H I J K L M N O P Q R S T U V W X Y Z

Passafire - Fix Again tab

Song: Fix Again
Band: Passafire
Album: Submersible

*No one has tabbed these guys yet

Intro:
|------------------------|
|------0-----------0-----|
|------------------------|(Repeat until necessary)
|----2---2-------2---2---|
|--2-------2---2-------2-|
|0-----------0-----------|

^^ Starts off muted gradually becomes clearer

|------------------------------|
|------0---------------0-------|
|------------------------------|
|----2---2---2-------2---2---0-|(Repeat until necessary)
|--2-------2-------2-------2---|
|0---------------0-------------|

|---------------------------------|
|------0------------------0-------|
|---------------------------------|
|----2---2---2-2br------2---2---0-|(Repeat until necessary)
|--2-------2----------2-------2---|
|0------------------0-------------|

|--------------------------|
|------0-------------------|
|--------------------------|
|----2---2---2-2br---6-4-4-|
|--2-------2---------7-7-5-|
|0-------------------------|
                     ^ ^ ^
                 Reggae Effect
Chorus

|------------------------------|
|------0---------------0-------|
|------------------------------|
|----2---2---2-------2---2---0-|(Repeat until necessary)
|--2-------2-------2-------2---|
|0---------------0-------------|

|---------------------------------|
|------0------------------0-------|
|---------------------------------|
|----2---2---2-2br------2---2---0-|(Repeat until necessary)
|--2-------2----------2-------2---|
|0------------------0-------------|
[ Tab from: http://www.guitaretab.com/p/passafire/101244.html ]
|--------------------------|
|------0-------------------|
|--------------------------|
|----2---2---2-2br---6-4-4-|
|--2-------2---------7-7-5-|
|0-------------------------|
                     ^ ^ ^
                 Reggae Effect
Verse

*The verse is actually played on piano but Iím sure not everyone on UG can play piano :) 
it is for guitar

|----------------------------------------------|
|9-9-9-9---10-10-10-10---9-9-9-9---12-12-12-12-|
|9-9-9-9---11-11-11-11---9-9-9-9---11-11-11-11-|
|----------------------------------------------|
|----------------------------------------------|
|----------------------------------------------|
                                    ^^^^^^^^
                                 On final play through
                                 only play once

Solo: I think this might be a bass solo but anyway this is how it would sound if it was 
guitar

|-------------------------------------------|
|-------------------------------------------|
|-------------------------------------------|
|6-7-9------------------4-4/9---------------|
|---------7-9-10----5-7-------9-7-4-5---5h7-|
|-------------------------------------5-----|

|------------------------------------------------------------------|
|------------------------------------------------------------------|
|------------------------------------------------------------------|
|7/9-9-9/12-12/10-10/9-9ó--------------------4---------------------|
|------------------------5---7---8---5---7-----7-5-4-4-4-4-4-4-4-4-|
|--------------------------5---5-------7---------------------------|


Order of Song:

Intro
Chorus
Verse
Chorus
Verse
Solo (Possibly bass?)
Chorus
Related for Fix Again tab