Guitaretab - guitar tabs
Song name
# A B C D E F G H I J K L M N O P Q R S T U V W X Y Z

Passafire - Thievery tab

Song: Thievery
Band: Passafire
Album: Passafire
Tabbed by: O-52-A-50-R

Intro

|----------------------------|
|/9-7---/9-7--7-/9-7---------|
|/9-7-7-/9-7--7-/9-7-7-7-7---|
|-----8--------------8-7-7-9-|
|--------------------------9-|
|----------------------------|

Verse
[ Tab from: http://www.guitaretab.com/p/passafire/101245.html ]
|7-7-7-7-6-6-----7-7-7-7-6-6-------|
|7-7-7-7-7-7-9-9-7-7-77-7-7---9---|
|------------9-9-----------------7-| (repeat as necessary)
|----------------------------6-----|
|----------------------------------|
|----------------------------------|

Chorus
|--------|
|7-7-7-7-|
|7-7-7-7-| (Repeat as necessary)
|--------|
|--------|
|--------|

Bridge
|10-10-10-10-|
|12-12-12-12-|
|------------|
|------------| (repeat as necessary)
|------------|
|------------|

Outro
|----------------------------|
|/9-7---/9-7--7-/9-7---------|
|/9-7-7-/9-7--7-/9-7-7-7-7---|
|-----8--------------8-7-7-9-|
|--------------------------9-|
|----------------------------|

Related for Thievery tab