Guitaretab - guitar tabs
Song name
# A B C D E F G H I J K L M N O P Q R S T U V W X Y Z

Passafire - Rude Boi tab

Song: Rude Boi
Band: Passafire
Album: Passafire
Tabbed By: O-52-A-50-R

Intro:

Hereís some of the bass transcribed for guitar so you can get a feel for it:

|------------------------------------------------|
|------------------------------------------------|
|------------------------------------------------|
|----------------------0-2-2---------------------|
|2-2-5p4-2-0-2-2-5p4-2-------5p4-2-0-2-2-5p4-2-0-|
|------------------------------------------------|

Guitar:

|7-7-7-7-7-7-x-7-7-7-7-7-7-7-7-x-7-7-7-7-7-7-7-7-x-7-7-|
|7-7-7-7ó7-7-x-7-7-7-7-7-7-7-7-x-7-7-8-8-8-8-8-8-x-8-8-|
|------------------------------------------------------|
|------------------------------------------------------|
|------------------------------------------------------|
|------------------------------------------------------|
|------------------------------------------------------|


Repeat both parts as necessary.


|7--9-|
|8-10-|
|-----|
|-----|
|-----|
|-----|


Verse:

|7-7-7-7-7-7-7-7-7-7-7-7-7-7-7-7--|
|7-7-7-7-7-7-7-7-8-8-8-8-7-7-7-7--|
|---------------------------------| (repeat as necessary)
|---------------------------------|
|---------------------------------|
|---------------------------------|

Chorus:

|7---9-10-10-|
|8--10-12-12-|
|------------|
|------------| (repeat as necessary)
|------------|
|------------|


|-----------|
|------10---|
|--9------9-|
|7---7------|
|-----------|
|-----------|------\
                    \
                     | Very Faint
|-------------|     /
|-------------|----/
|-----7----11-|
|--11---11----|
|7------------|
|-------------|

After-Chorus/Pre-Verse:

Hereís some of the bass transcribed for guitar: 

|------------------------------------------------|
|------------------------------------------------|
|------------------------------------------------|
|----------------------0-2-2---------------------|
|2-2-5p4-2-0-2-2-5p4-2-------5p4-2-0-2-2-5p4-2-0-|
|------------------------------------------------|

Guitar:

|7-7-7-7-7-7-x-7-7-7-7-7-7-7-7-x-7-7-7-7-7-7-7-7-x-7-7-|
|7-7-7-7ó7-7-x-7-7-7-7-7-7-7-7-x-7-7-8-8-8-8-8-8-x-8-8-|
|------------------------------------------------------|
|------------------------------------------------------|
|------------------------------------------------------|
|------------------------------------------------------|
|------------------------------------------------------|


Repeat both parts as necessary.


|7--9-|
|8-10-|
|-----|
|-----|
|-----|
|-----|


Verse 2:

Same as Verse 1


Verse Alteration:
[ Tab from: http://www.guitaretab.com/p/passafire/106543.html ]
|7-5-3-3-|
|7-5-3-3-|
|--------|
|--------| (repeat as necessary)
|--------|
|--------|


|---------2-|
|----2------|
|--3---3----| (Very Faint)
|4----------|
|-----------|
|-----------|


After-Chorus/Pre-Verse 2:

Same as After-Chorus/Pre-Verse 1.

Verse 3:

Same as verses 1 and 2.





Bridge:

|2-2-2-2-5-5-5-5-2-2-2-2-3-3-3-3-|
|3-3-3-3-5-5-5-5-0-0-0-0-3-3-3-3-|
|--------------------------------|
|--------------------------------|
|--------------------------------|
|--------------------------------|


Chorus 2:

*Different Lyrics same melody.

|7---9-10-10-|
|8--10-12-12-|
|------------|
|------------| (repeat as necessary)
|------------|
|------------|

|5-2--|
|5-2--|
|-----|
|-----|
|-----|
|-----|

Outro

Same as After-Chorus/Pre-Verse 1 and 2.

End on:

|7--|
|7--|
|---|
|---|
|---|
|---|

Heres the lyrics (that i also tabbed) hopefully they're good


Rude Boi by Passafire Lyrics


M.C. donít have no reason
 If you donít come 
With original rhyme
 
Better practice up for
Next season cause right now
Youíre just wasting my time

Gotta stop all that fussing
And please donít put up a fight

Better stop all the pushing and
The shoving pass the torch to your 
Left or to your right 

Or to your right
Or to your left my friend 
Or to your right

And I know that you call yourself
A Rude Boi better step and raise up
Whoís your savior?

Know that you got Ďum in the mood
Boi but for once in your life
Do yourself a favor

Itís so nice
Saving yourself from hate

Oh god Iím singing this song to help
You escape ainít nobody
 Stopping this jailbreak

I said this love someday 
Shall conquer got to unite to 
Fight down the monster

Love shall overcome
But the work is never done
Yeah

Whoa-oh

M.C.ís hope youíre not rapping 
About aggression then you donít
Have no place behind the microphone

If you got some hint of aggression thatís
Something you should deal with
On your own

Because the children of the world
Out there are listening
I here theyíre getting 
Smarter everyday

But you better be careful of
The wisdom that youíre giving 
Them and be mindful 
of the words you say


Because the children of the world
Out there are listening
And I here theyíre getting 
Smarter everyday

But you better be careful of
The wisdom that youíre giving 
Them or be mindful 
Of the words you say

Save you violence for revolution 
Day when self defense is the only
Other way

Stop building tomorrow for today
Youíve got to give thanks
And pray naah

Whoa-oh Whoa-oh

Related for Rude Boi tab