Guitaretab - guitar tabs
Song name
# A B C D E F G H I J K L M N O P Q R S T U V W X Y Z

Passafire - Who You Know tab

Song Name: Who You Know
Band: Passafire
Album: Submersible
Tabbed By: O-52-A-50-R

Intro (repeat as necessary)
|----------------------------------------|
|----------------------------------------|
|----------------------------------------|
|----------------------------------------|
|------2-4-0-0-0-4-0-------2-4-0-0-0-4-0-|
|7/2-4---------------7/2-4---------------|

Verse (repeat as necessary)

|7-7-7-7-----------|
|7-7-7-7-9-7-5-2/4-|
|--------9-8-6-2/4-|
|------------------|
|------------------|
|------------------|

Pre-Chorus Riff

|------|
|9-7-5-|
|8-8-6-|
|------|
|------|
|------|

Chorus (They are lined up according to when they are played

LEAD
|14----------14----------14----------14----------14---------|
|---16-14-16----16-14-16----16-14-16----16-14-16----16-14-16|
|-----------------------------------------------------------|
|-----------------------------------------------------------|
|-----------------------------------------------------------|
|-----------------------------------------------------------|
[ Tab from: http://www.guitaretab.com/p/passafire/107138.html ]
HARMONY
|------------------------------------------------------------|
|------------------------------------------------------------|
|------------------------16----------16----------16----------|
|---------------------------18-16-18----18-16-18----18-16-18-|
|------------------------------------------------------------|
|------------------------------------------------------------|


(Sickest)Breakdown(Ever!!!)

|-------------------------------------------------|
|-------------------------------------------------|
|-------------------------------------------------|
|9-7-6--BASS-9-7-6--BASS-11-7-6--BASS-13-7-6---5--|
|9-7-6-------9-7-6-------11-7-6-------13-7-6---5--|
|7-5-4-------7-5-4-------9--5-4-------11-5-4---3--|



Solo

|------------------------------------------
|--------------------------9-7-------------
|----------------6br---6---------6-8-6br---
|--------------9-----9---9-----9---------9-
|--------6-7/9-----------------------------
|7/9-9-9-----------------------------------

|-----------|
|-----------|
|-----------|
|7-6--------|
|----7-6\\\-|
|-----------|

Outro/(Some instrumentís) solo/ Bass solo

|7-7-7-7-----------|
|7-7-7-7-9-7-5-2/4-| (repeat as necessary)
|--------9-8-6-2/4-|
|------------------|
|------------------|
|------------------|

|------|
|9-7-5-|
|8-8-6-|
|------|
|------|
|------|

Related for Who You Know tab